Red Hot Chili Peppers - Californication Solo Chords & Tabs

 

Californication Solo Chords & Tabs

Red Hot Chili Peppers Chords & Tabs

Version: 5 Type: Tab 2 ratings
1 star 2 stars 3 stars 4 stars 5 stars
comments

Californication Solo Tab

RHCP-californication solo
tabbed by: michael manalo

SOLO:

* = make note ring
() = not too loud or use natural harmonics

E-----9--------------9------------------------------------------------------
B--10-------------10--------------------------------------------------------
G---------11b13---------11b13----11-11-11p9-9----9--11----------------------
D---------------------------------------------11--------(11)----------------
A---------------------------------------------------------------------------
E---------------------------------------------------------------------------
[ Tab from: http://www.guitartabs.cc/tabs/r/red_hot_chili_peppers/californication_solo_tab_ver_5.html ]
E----9-----12---14*-----9---12--14b16-14*---17--16--14--12--14--12----12----
B--10-----------------10--------------------------------------------14----14
G---------------------------------------------------------------------------
D---------------------------------------------------------------------------
A---------------------------------------------------------------------------
E---------------------------------------------------------------------------

E---------------------------12------16-16-14-12-12-10--9-----12-10-9--------
B--12b14*----12b14*--12-14-----14------------------------10----------10-----
G---------------------------------------------------------------------------
D---------------------------------------------------------------------------
A---------------------------------------------------------------------------
E---------------------------------------------------------------------------

for any comments or suggestions, just email me at michaelvincent_manalo@yahoo.com
Comments