Red Hot Chili Peppers - Californication Solo Chords & Tabs

 

Californication Solo Chords & Tabs

Red Hot Chili Peppers Chords & Tabs

Version: 4 Type: Tab 9 ratings
1 star 2 stars 3 stars 4 stars 5 stars
comments

Californication Solo Tab

this is the real way to play it

  -----9-------------9-------------------------------------------
  --10----7h9h7---10----7h9h7---777--5----------7h8-7---5--------
  -------------------------------------6---4-6------------6------
  --------------------------------------------------------------- 
  ---------------------------------------------------------------
  ---------------------------------------------------------------
[ Tab from: http://www.guitartabs.cc/tabs/r/red_hot_chili_peppers/californication_solo_tab_ver_4.html ]
  
  -----9--12--14--------9--12--16-14----17-16-14-12--14-12---12--
  --10---------------10------------------------------------14----
  ---------------------------------------------------------------
  ---------------------------------------------------------------
  ---------------------------------------------------------------
  ---------------------------------------------------------------


  -----12-----16--14--12----12------------12---------------------------------
  --14----14-------------14----14-12----------15--14---------------------------
  ------------------------------------14-------------14--------------
  ---------------------------------------------------------------
  ---------------------------------------------------------------
  ---------------------------------------------------------------
Comments