Red Hot Chili Peppers - Californication Solo Chords & Tabs

 

Californication Solo Chords & Tabs

Red Hot Chili Peppers Chords & Tabs

Version: 1 Type: Tab 0 ratings
1 star 2 stars 3 stars 4 stars 5 stars
comments

Californication Solo Tab

                       CALIFORNICATION SOLO

E-----9---------------9----------------------------------------------
B--10--------------10------------------------------------------------
G-------11/13-11--------11/13-11---11-11-9-----------9-11/13-11------
D------------------------------------------11--11-11-----------------
A--------------------------------------------------------------------
E--------------------------------------------------------------------
[ Tab from: http://www.guitartabs.cc/tabs/r/red_hot_chili_peppers/californication_solo_tab.html ]
E----9--12-14------9--12--16-14---17-16-14-12-14-12-11-12-11--9------
B-10------------10---------------------------------------------------
G--------------------------------------------------------------------
D--------------------------------------------------------------------
A--------------------------------------------------------------------
E--------------------------------------------------------------------


                    RED HOT CHILI PEPPERS FOREVER

                                                     BY:LEVI
                                                          WILLEFORD

Comments