Red Hot Chili Peppers - Californication Correct Chords & Tabs

 

Californication Correct Chords & Tabs

Red Hot Chili Peppers Chords & Tabs

Version: 1 Type: Tab 38 ratings
1 star 2 stars 3 stars 4 stars 5 stars
comments

Californication Correct Tab

   
Song:      Californication
Artist:    Red Hot Chili Peppers
Album:     Californication

(Transcribed by: RyBo and Gilly)

This is 100% accurate; we would bet a pretty penny on it. Listen to song for timing, amount of verses etc. HAVE FUN you rascals.

VERSE
e---------------------------------------------------------------
B-----0-1------------------------------------------------------
G-------------------------------0-2----------------------------
D---2-------(2)-(0h2p0)---------------(0)---------------------
A-0---------------------(3)---3-----------(3)------------------
E---------------------------1------------------------------------

e-----------------------------------------------------------------------------
B-----0-1--------------------------------------------------------------------
G-------------------------------0-2------------------------------------------
D---2-------(2)-(0h2p0)---------------(3)-(0)-----------------------------
A-0---------------------(3)---3---------------------------------------------
E---------------------------1------------------------------------------------

VERSE ENDING
e-----0-----------------------1-----------------
B-------1-----3---------------3----------------
G---------------------------2--------------------
D---2-----------0-----3---0--------------------
A-3---------2-------3---3---------------------
E---------3-------1----------------------------

PRECHORUS
    Am    F    Am     F 
E---0-----0-----0-----0-  
B---1-----1-----1-----1-   
G---2-----2-----2-----2-    3 Times
D---2-----3-----2-----3-   
A---0-----3-----0-----3-  
E-----------------------
[ Tab from: http://www.guitartabs.cc/tabs/r/red_hot_chili_peppers/californication_correct_tab.html ]
CHORUS
    C     G     Dm    Am    C     G     Dm
E---0-----------1-----0-----0-----------1-
B---1-----3-----3-----1-----1-----3-----3-
G---0-----0-----2-----2-----0-----0-----2-
D---2-----0-----0-----2-----2-----0-----0-
A---3-----2-----------0-----3-----2-------
E-----------------------------------------

SOLO
e-----9------------------9------------------------------------------------------------------------------
B-10----------------10--------------------------------------------------------------------------------
G------11(13)11---------11(13)11----11-11-11-11p9---------------9-11(13)9-----------------
D------------------------------------------------------------11-11-9-11------------11--------------
A------------------------------------------------------------------------------------------------------
E-------------------------------------------------------------------------------------------------------

e-----9-12-14----9-12-14(16)14--17-16-14-12-14-12---12------------------------------12--
B-10----------10-------------------------------------------14----14-12(14)-12(14)-12(14)--14
G------------------------------------------------------------------------------------------------------
D-----------------------------------------------------------------------------------------------------
A-----------------------------------------------------------------------------------------------------
E-----------------------------------------------------------------------------------------------------

e-14(16)12--12----------12-------------
E-----------14--14-12--------15-14-----
B------------------------14----------14---
G-------------------------------------------
D------------------------------------------
A------------------------------------------
E-------------------------------------------


Comments