Red Hot Chili Peppers - Californication Chords & Tabs

 

Californication Chords & Tabs

Red Hot Chili Peppers Chords & Tabs

Version: 9 Type: Bass Tab 0 ratings
1 star 2 stars 3 stars 4 stars 5 stars
comments

Californication Bass Tab

Intro

G)------9-9--7h9-7-5------7--7--5--|------9-9-7h9-7-5-----10-10-7--| x2
D)--7-7----------------------------|--7-7--------------------------|
A)--------------------8-8----------|------------------8-8----------|
E)---------------------------------|-------------------------------|

Verse 1

G)------9-9--7h9-7-5------7--7--5--|------9-9-7h9-7-5-----10-10-7--| x2
D)--7-7----------------------------|--7-7--------------------------|
A)--------------------8-8----------|------------------8-8----------|
E)---------------------------------|-------------------------------|

G)---------------------------------|
D)---------------------------------|
A)--3-3----------5-5---------------|
E)------3-3--1-1-------------------|

G)------9-9--7h9-7-5------7--7--5--|------9-9-7h9-7-5-----10-10-7--| x2
D)--7-7----------------------------|--7-7--------------------------|
A)--------------------8-8----------|------------------8-8----------|
E)---------------------------------|-------------------------------|

Prechorus
[ Tab from: http://www.guitartabs.cc/tabs/r/red_hot_chili_peppers/californication_btab_ver_9.html ]
G)----------------------------------|--------------------------9---------|
D)--7-77-7-7-9-10---------10-9------|-7-77-7-7-9-10---------10---12-10-9-|
A)----------------8-88-8-------10---|---------------8-88-8---------------|
E)----------------------------------|------------------------------------|

G)----------------------------------|------------------------------------|
D)--7-77-7-7-9-10---------10-9------|--7-77-7-7-9-10---------10-9--------|
A)----------------8-88-8-------10---|----------------8-88-8-------10-----|
E)----------------------------------|------------------------------------|

G)----------------------------------|-----------------------10-10-10-10-10-|
D)--7-77-7-7-9-10---------10-9------|--7-77-7-7-9-10-----------------------|
A)----------------8-88-8-------10---|----------------8-88-8----------------|
E)----------------------------------|--------------------------------------|

Chorus

G)------------------|-------------------|
D)------------------|-------------------|
A)--3-3-----5-5-----|--3-3--------5-----|
E)------3-3-----5-5-|------3-1-3----5---|

All the verse's are the same as verse 1. The Chorus does change but only
slightly. I'm only 14 years old this is my first tab so enjoy!
Comments