Red Hot Chili Peppers - Californication Chords & Tabs

 

Californication Chords & Tabs

Red Hot Chili Peppers Chords & Tabs

Version: 5 Type: Bass Tab 0 ratings
1 star 2 stars 3 stars 4 stars 5 stars
comments

Californication Bass Tab

Californication-Red Hot Chili Peppers
Tabbed by TomAnthony        

Intro/
Verse Part 1

G|-----9--7-h-9-p-7------------7-7--------------9--7-h-9-p-7-----------10-10-7-----------|
D|-7-7----------------10--------------10---7-7-----------------10------------------------|
A|------------------------8-8--------------------------------------8-8-------------------|
E|---------------------------------------------------------------------------------------|

Verse Part 2
    And If you want these kind of dreams...
G|---------------------------------------------------------------------------------------|
D|---------------------------------------------------------------------------------------|
A|-3-3-3-3----------------5-5-5-5--------------------------------------------------------|
E|---------3-3-3-3-1-1-1-1---------------------------------------------------------------|

Pre-Chorus
    Pay your surgoen very well...
G|------------------------------------------------------------------7--------------------|
D|-7-7-7-7-7-7-9-10---------------10-9---7-7-7-7-7-7-9-10-------------10-9---------------|
A|------------------8-8-8-8-8-8-8------8------------------8-8-8-8-8----------------------|
E|---------------------------------------------------------------------------------------|
[ Tab from: http://www.guitartabs.cc/tabs/r/red_hot_chili_peppers/californication_btab_ver_5.html ]
then play this at the end of the pre-verse.                           
G|---------------------------------------------------------------------------------------|
D|-15-15-15-15-15-15-15-15-15------------------------------------------------------------|
A|---------------------------------------------------------------------------------------|
E|---------------------------------------------------------------------------------------|

Chorus
    Dream of Californiation...
G|---------------------------------------------------------------------------------------|
D|---------------------------------------------------------------------------------------|
A|-3-3-----5-5---0-0---3-5-3-2---2-3-5--5-5-5--5-5--5-5--5-5-5-5-------------------------|
E|-----3-3---------------------3---------------------------------------------------------|

Solo Part 1
G|---------------------------------------------------------------------------------------|
D|-19-18-16--12--19-18-16--12-------------------------------14----14---------------------|
A|-----------------------------14----14--17----17--12----12----14------------------------|
E|--------------------------------14--------17--------12---------------------------------|

Solo continued
G|---------------------------------------------------------------------------------------|
D|-19-18-16--12--19-18-16--12-------------------------------14----14---------------------|
A|-----------------------------14----14--17----17--12----12----14-----14-----------------|
E|--------------------------------14--------17--------12---------------------------------|

Solo continued
G|---------------------------------------------------------------------------------------|
D|--------------------------14----14-----------------------------------------14----14----|
A|---14--17----17--12----12----14--------14----14----17----17----12----12-------14----14-|
E|14--------17--------12--------------------14----14----17----17----12----12-------------|

That's it
Please rate this,
I really broke my ass doing this.

Corrections?
E-mail me at
               dirtyaldante@hotmail.com
Comments