Red Hot Chili Peppers - Californication Chords & Tabs

 

Californication Chords & Tabs

Red Hot Chili Peppers Chords & Tabs

Version: 4 Type: Bass Tab 1 rating
1 star 2 stars 3 stars 4 stars 5 stars
comments

Californication Bass Tab

Red Hot Chili Peppers
Californication
Album: Californication
Tabbed Correction by:  dawndie Gicale & francis Villaflor
 
Intro
G|------9-9-7h9p7-5-----7-7-5--|------9-9-7h9p7-5-----10-10-7--|
D|--7-7------------------------|--7-7--------------------------|
A|------------------8-8--------|------------------8-8----------|
E|-----------------------------|-------------------------------|
 
Verse 1 
(2x)
G|------9-9-7h9p7-5-----7-7-5--|------9-9-7h9p7-5-----10-10-7--|
D|--7-7------------------------|--7-7--------------------------|
A|------------------8-8--------|------------------8-8----------|
E|-----------------------------|-------------------------------|
 
G|-------------------|
D|-------------------|
A|--3-3---------5-5--|
E|------3-3-1-1------|
 
(2x)
G|------9-9-7h9p7-5-----7-7-5--|------9-9-7h9p7-5-----10-10-7--|
D|--7-7------------------------|--7-7--------------------------|
A|------------------8-8--------|------------------8-8----------|
E|-----------------------------|-------------------------------|
 
G|-------------------|
D|-------------------|
A|--3-3---------5-5--|
E|------3-3-1-1------|
 
Prechorus 1
G|-----------------|-----------------|-----------------|
D|7-777-77-77-9-10-|----------10-9---|7-777-77-77-9-10-|
A|-----------------|8-888-88-8----10-|-----------------|
E|-----------------|-----------------|-----------------|

G|-------7/9-7-5--|
D|---------------3|
A|-8-888----------|
E|----------------|

(X3)
G|-----------------|-----------------| 
D|7-777-77-77-9-10-|----------10-9---|
A|-----------------|8-888-88-8----10-|
E|-----------------|-----------------|

G|-----------------|-----------------|
D|7-777-77-77-9-10-|-----------------|
A|-----------------|8-888-88-8888888-|
E|-----------------|-----------------|

Chorus 1
G|---------------------|---------------|
D|---------------------|---------------|
A|--3-3-------5-5------|-3-3--------5~-|
E|-------3-3-------5-5-|------3-1-3----|
 
Verse 2:  Same as Verse 1
Prechorus 2
G|-----------------|----------------|------------------|
D|7-777-77-77-9-10-|----------10-9--|-7-777-77-77-9-10-|
A|-----------------|8-888-88-8----10|------------------|
E|-----------------|----------------|------------------|

G|-------------------------|
D|------------10-10-9------|
A|-8-888-88-8--------10--8-|
E|-------------------------|

G|-----------------|----------------|-----------------|
D|7-777-77-77-9-10-|----------10-9--|7-777-77-77-9-10-|
A|-----------------|8-888-88-8----10|-----------------|
E|-----------------|----------------|-----------------|

G|----------------------|
D|------------10h12-9---|
A|-8-888-88-8--------10-|
E|----------------------|
[ Tab from: http://www.guitartabs.cc/tabs/r/red_hot_chili_peppers/californication_btab_ver_4.html ]
G|-----------------|----------------|------------------|
D|7-777-77-77-9-10-|----------10-9--|-7-777-77-77-9-10-|
A|-----------------|8-888-88-8----10|------------------|
E|-----------------|----------------|------------------|

G|-----/10-10-10-10-10-10-|
D|------------------------|
A|-8-88-------------------|
E|------------------------|

Chorus 2
G|---------------------|-----------------------7---7-7-|
D|---------------------|-------------------------------|
A|-3-3-------5-5-------|3-3---------5--5-5-5-5---5-----|
E|------3-3-------5-5--|-----3-1-3---------------------|

G|---------------------|-------------------|
D|---------------------|----3-1------------|
A|-3-3-------5-5-------|3-3-----3-1-----5~-|
E|------3-3-------5-5--|------------3-1----|
 
Solo 
(2x)
G|---------12---11---------------|
D|-------------------------------|
A|--9h10------9----9---5--5--5-5-|
E|-------------------------------|
 
G|------------7------------|
D|------9---7------7-------|
A|----9---5------7-------7-|
E|--7----------5-----0-7---|
 
(2x)
G|---------12---11---------------|
D|-------------------------------|
A|--9h10------9----9---5--5--5-5-|
E|-------------------------------|
 
(3x)
G|------------7------------|
D|------9---7------7-------|
A|----9---5------7-------7-|
E|--7----------5-----0-7---|
 

Verse 3 (2x)
G|------9-9-7h9p7-5-----7-7-5--|------9-9-7h9p7-5-----10-10-7--|
D|--7-7------------------------|--7-7--------------------------|
A|------------------8-8--------|------------------8-8----------|
E|-----------------------------|-------------------------------|
 
G|-------------------|
D|-------------------|
A|--3-3---------5-5--|
E|------3-3-1-1------|
 
Prechorus 3 
G|-----------------|----------------|------------------|
D|7-777-77-77-9-10-|----------10-9--|-7-777-77-77-9-10-|
A|-----------------|8-888-88-8----10|------------------|
E|-----------------|----------------|------------------|
 
G|----------------|
D|----------------|
A|-8-7-7-5-5------|
E|----------6-5-3-|

G|-----------------|----------------|-----------------|
D|7-777-77-77-9-10-|----------10-9--|7-777-77-77-9-10-|
A|-----------------|8-888-88-8----10|-----------------|
E|-----------------|----------------|-----------------|

G|----------------------|
D|------------10h12-9---|
A|-8-888-88-8--------10-|
E|----------------------|

G|-----------------|----------------|------------------|
D|7-777-77-77-9-10-|----------10-9--|-7-777-77-77-9-10-|
A|-----------------|8-888-88-8----10|------------------|
E|-----------------|----------------|------------------|

G|-----/10-10-10-10-10-10-|
D|------------------------|
A|-8-88-------------------|
E|------------------------|

Chorus 3:  Same as Chorus 2

thanx 2 the help of kristian avila 4 the good tune_+O)+!@_$^+%&*__+_(
Comments