Red Hot Chili Peppers - Cabron Chords & Tabs

 

Cabron Chords & Tabs

Red Hot Chili Peppers Chords & Tabs

Version: 8 Type: Tab 0 ratings
1 star 2 stars 3 stars 4 stars 5 stars
comments

Cabron Tab

   
-------------------------------------------------------------------------------
			     Cabron – Red Hot Chili Peppers
-------------------------------------------------------------------------------

Tabbed by: Dean Harshman
Email: msbgviking86@aol.com
This is my first real tab so don’t kill me if its wrong…
I believe its 100% correct tho… see wat you think…

Tuning: standard Capo 7th fret
Intro:
e|-3--0-|--|----------3------|-2-|-------------------------------------------|
B|-0--0-|--|----1-------1----|-3-|-------------------------------------------|
G|-0--0-|x2|------0-----0---0|-2-|-------------------------------------------|
D|-0--2-|--|--2-----2-----2--|---|-------------------------------------------|
A|-2--2-|--|--3--------------|---|-------------------------------------------|
E|-3--0-|--|-----------------|---|-------------------------------------------|
[ Tab from: http://www.guitartabs.cc/tabs/r/red_hot_chili_peppers/cabron_tab_ver_8.html ]
Main Riff:      G                 Eb
e|-----------|-3-|---|----------|-0-|---|------------------------------------|
B|-0---------|-0-|---|-0--------|-0-|---|------------------------------------|
G|---2-0---0-|-0-|x10|--2-0-----|-1-|x10|------------------------------------|
D|-------2---|-0-|---|------2---|-2-|---|------------------------------------|
A|-----------|-2-|---|--------2-|-2-|---|------------------------------------|
E|-----------|-3-|---|----------|-0-|---|------------------------------------|
 
Last Verse:
e|---0------2-|-3------0-|
B|---1------3-|-3------0-|
G|---0------2-|-0------0-|
D|---2------0-|-0------0-|
A|------------|----------|
E|------------|----------|

Yea…that’s the song just play it thru with the exception of the last part then there 
ya go… 
| /  slide up
| \  slide down
| h  hammer-on
| p  pull-off
| ~  vibrato
| +  harmonic
| x  Mute note
=========================================================================
Comments