Red Hot Chili Peppers - Cabron Chords & Tabs

 

Cabron Chords & Tabs

Red Hot Chili Peppers Chords & Tabs

Version: 6 Type: Tab 0 ratings
1 star 2 stars 3 stars 4 stars 5 stars
comments

Cabron Tab

   
Standard Tuning: EADGBe

Key:
* = Let note(s) ring


Intro 

     D*        B*                G             A*
|---17--------14----|   |---------7--7--7--7---9----|
|---15--------12----|   |----------9--9--9-----11---|
|---14--------11----|   |--------7--7--7--7----9----|
|-------------------|   |---------------------------|
|-------------------|   |---------------------------|
|-------------------|x2 |---------------------------|
           Then ^^             

Verse 
   D                   B                            D*         B*
    
|-----------------------------------------|    |------------------------|
|--7p5-----------------3p2----------------|    |------------------------|
|------7p6h7--7-7-7--------4p2----4-4-4---|    |----7----------4--------|
|-------------7-7-7------------4--4-4-4---|    |----7----------4--------|
|-------------5-5-5---------------2-2-2---|    |----5----------2--------|
|-----------------------------------------|x2  |------------------------| (For aslong as Verse is)
                                                  "Cab-ron______Cab-ron"
[ Tab from: http://www.guitartabs.cc/tabs/r/red_hot_chili_peppers/cabron_tab_ver_6.html ]
Chorus       (Play once first time round,, then    
             twice second time.)                   (Play Twice)
   G                       A                         D               B
|---------------------------------------------|   |----5--5--5--5------2--2--2--2--------|
|---------------------------------------------|   |----5--5--5--5------2--2--2--2--------|
|---------------------------------------------|   |----7--7--7--7------4--4--4--4--------|
|--5----5----5----5--------7----7----7----7---|   |----7--7--7--7------4--4--4--4--------|
|--5----5----5----5--------7----7----7----7---|   |----5--5--5--5------2--2--2--2--------|
|--3----3----3----3--------5----5----5----5---|   |--------------------------------------| (Repeat All twice)
"I'm small but i am Strong I'll get it on With you. If you want it  too-oo.

Riff at 2:19s
|----2*-------------------2*------------------|
|--2-------2---0*-------2------2----0*------2-| >Leads back into Chorus
|---------------------------------------------|
|---------------------------------------------|
|---------------------------------------------|
|---------------------------------------------|

Repeat this riff again through last chorus/outro.
Feel free to email: jak_d_lad@hotmail.com
Comments