Red Hot Chili Peppers - Cabron Chords & Tabs

 

Cabron Chords & Tabs

Red Hot Chili Peppers Chords & Tabs

Version: 2 Type: Tab 0 ratings
1 star 2 stars 3 stars 4 stars 5 stars
comments

Cabron Tab

Red Hot Chili PEppers
Cabron
By the Way
Treanscribed by Chris Valente
Email: REdHotMetallica@aol.com

Capo 7th fret

Intro

|-3----0----3----0---------
|-3----0----3----0---------
|-0----0----0----0---------
|-0----2----0----2---------
|-2----2----2----2---------
|-3----0----3----0---------
[ Tab from: http://www.guitartabs.cc/tabs/r/red_hot_chili_peppers/cabron_tab_ver_2.html ]
|------------------------------
|-------12------12----12---14--
|----------12-----12----12-14--
|----12--------------------14--
|-10----------10----10-----12--
|------------------------------

Verses

|-----------3-------------0---
|--0--------3-------------0---
|----2-0----0--0----------0---
|-------2---0----2-0------2---
|-----------2--------4----2---
|-----------3-------------0---

Chorus
-|--3----5---
-|--5----7---
-|--5----7---
-|--5----7---
-|--3----5---
-|-----------
Comments