Red Hot Chili Peppers - Cabron Chords & Tabs

 

Cabron Chords & Tabs

Red Hot Chili Peppers Chords & Tabs

Version: 10 Type: Tab 0 ratings
1 star 2 stars 3 stars 4 stars 5 stars
comments

Cabron Tab

This is my first tab so I'm not sure if it's correct...

Intro:


e]--2-----2-----2-----2-----------------------------------------|
B]--3-----3-----3-----3-----------------------------------------|
G]--2-----4-----2-----4-----------------------------------------|
D]--0-----4-----0-----4-----------------------------------------| 
A]--------2-----------2-----------------------------------------|
E]--------2-----------2-----------------------------------------|
[ Tab from: http://www.guitartabs.cc/tabs/r/red_hot_chili_peppers/cabron_tab_ver_10.html ]
e]-----7------------7---7-----7------------7---7--9-------------|
B]---------8-----8-----8----------8-----8-----8---11------------|
G]--------7----------------------7----------------11------------|
D]--5---------9------------5---------9------------11------------| 
A]------------------------------------------------9-------------|
E]------------------------------------------------9-------------|

e]--2--0-----------2---22-22--0------------2---22-22-22---------|
B]-------3--2--3---3---33-33----3--2-------3---33-33-33---------|
G]-----------------2-2-22-22----------2----4-4-44-44-44---------|
D]-----------------0---00-00-------------4-4---44-44-44---------| 
A]-----------------------------------------2---22-22-22---------|
E]-----------------------------------------2---22-22-22---------|
Comments