Red Hot Chili Peppers - Cabron Chords & Tabs

 

Cabron Chords & Tabs

Red Hot Chili Peppers Chords & Tabs

Version: 1 Type: Tab 0 ratings
1 star 2 stars 3 stars 4 stars 5 stars
comments

Cabron Tab

   
Song: Cabron
Band: Red Hot Chili Peppers
By: Dan

Capo 7th fret. I have put what the chords are without the capo
in brackets so if someone doesn't have a capo they can strum along
anyway

|  |= 1 bar

Chords:
          E  a  d  g  b  E
Dext5     x  x 16 14 15 17
Bm        x 14 16 16 15 14
G (D)    10  9  7  7 10 10 
Em (Bm)   7  9  9  7  7  7
C (G)     x 10  9  7  8  7
D (A)     x  x  7  9 10  9

Intro:

| Dext5 | Bm | x2.... | C | C | d |

End of Intro and verse:
[ Tab from: http://www.guitartabs.cc/tabs/r/red_hot_chili_peppers/cabron_tab.html ]
e--------------10-----  ----------7--|
b--------------10-----------------7--|
g-11-9-7----7--7------9-7---------7--|
d--------11----7----------11-7----9--|
a--------------9---------------9--9--|
E--------------10-----------------7--|

Then midway through the verses it goes:

| C | d | Dext5 | Bm | Dext5 | Bm | x2 then

| C | d | C | d |

Solo: ( over | G | D | )

e-----------------------------------------
b-14/19-19--14/12-12--------------12/13/8-
g-------------------- x4 then    ---------
d-----------------------------------------
a-----------------------------------------
E-----------------------------------------

Ending:

| C | d | x2  then

| G | Em | to end and finish on G
Comments