Red Hot Chili Peppers - By The Way Chords & Tabs

 

By The Way Chords & Tabs

Red Hot Chili Peppers Chords & Tabs

Version: 1 Type: Chords 8 ratings
1 star 2 stars 3 stars 4 stars 5 stars
comments

By The Way Chords

   
Red Hot CHili Peppers - By The Way
From the album By The Way
tabbed by kevin McGinty
This is a mixture of alot of tabs and my own bits that i have added in
any comments - kevsis@hotmail.com

e---------------------------------------------------------------------------------
b---------------------------------------------------------------------------------
g---------------------------------------------------------------------------------
d-10-10-10-10-10-10-10-10-10-10-10-10-10-10-10-10---------------------------------
a-8--8--8--8--8--8--8--8--7--7--7--7--7--7--7--7--7-7-7-7-7-7-7-7-7-7-7-7-7-7-7-7-
e-------------------------------------------------5-5-5-5-5-5-5-5-5-5-5-5-5-5-5-5-

e-------------------------------------------------------------------------------------
b-------------------------------------------------------------------------------------
g-------------------------9--9--9--9--9--9--9--9--5-5-5-5-5-5-5-5-5-5-5-5-------------
d-10-10-10-10-10-10-10-10-10-10-10-10-10-10-10-10-7-7-7-7-7-7-7-7-7-7-7-7/14-14-12-12-
a-8--8--8--8--8--8--8--8--7--7--7--7--7--7--7--7--7-7-7-7-7-7-7-7-7-7-7-7-------------
e-------------------------------------------------5-5-5-5-5-5-5-5-5-5-5-5-------------

e---------------------------------------------------------------------------------
b---------------------------------------------------------------------------------
g---------------------------------------------------------------------------------
d-10-10-10-10-10-10-10-10-10-10-10-10-10-10-10-10---------------------------------
a-8--8--8--8--8--8--8--8--7--7--7--7--7--7--7--7--7-7-7-7-7-7-7-7-7-7-7-7-7-7-7-7-
e-------------------------------------------------5-5-5-5-5-5-5-5-5-5-5-5-5-5-5-5-

e---------------------------------------------------------------------5-5-5-5-----------
b---------------------------------------------------------------------5-5-5-5-----------
g-------------------------9--9--9--9--9--9--9--9--5-5-5-5-5-5-5-5-5-5-5-5-5-5-----------
d-10-10-10-10-10-10-10-10-10-10-10-10-10-10-10-10-7-7-7-7-7-7-7-7-7-7-7-7-7-7-----------
a-8--8--8--8--8--8--8--8--7--7--7--7--7--7--7--7--7-7-7-7-7-7-7-7-7-7-7-7-7-7-----------
e-------------------------------------------------5-5-5-5-5-5-5-5-5-5-5-5-5-5-----------



e------------------------------------------------------------------------------
b------------------------------------------------------------------------------
g------------------------------------------------------------------------------
d---x-x-x-x-x-x-x-x-x-x-x-x-x-x-x-x-x-x-x-x-x-x-x-x-x-x-x-x-x-x-x-x-x-x-x-x-x-x
a---x-x-x-x-x-x-x-x-x-x-x-x-x-x-x-x-x-x-x-x-x-x-x-x-x-x-x-x-x-x-x-x-x-x-x-x-x-x
e------------------------------------------------------------------------------
pm_____________________________________________________________________________
to play this part, put the wrist of your strumming hand on the strings above the pickup
closest to the bridge.


e---8-8-8-8-8-8---5-5---------5-5--------5-5--------8-8-8-8-8-8----------------
b-----------------6-6---------6-6--------6-6-----------------------------------
g-----------------7-7---------7-7--------7-7----------------------------------- repeat until the
d---------------------x-x-x-x----x-x-x-x----x-x-x-x---------------------------- last time and 
a---------------------x-x-x-x----x-x-x-x----x-x-x-x---------------------------- play....
e------------------------------------------------------------------------------


e--5-5---------5-5---------5-5-5-5-5-------------------------------------------
b--6-6---------6-6---------6-6-6-6-6-------------------------------------------
g--7-7---------7-7---------7-7-7-7-7-------------------------------------------
d------x-x-x-x-----x-x-x-x-----------------------------------------------------
a------x-x-x-x-----x-x-x-x-----------------------------------------------------
e------------------------------------------------------------------------------


e----------------------------------------------------------------------------------------------------
b----------------------------------------------------------------------------------------------------
g--10-10-10-10-10-10-10-10-9--9--9--9--9--9--9--9----------------------------------------------------
d--10-10-10-10-10-10-10-10-10-10-10-10-10-10-10-10---12-12-12-12-12-12-12-12-12-12-12-12-12-12-12-12-
a--8--8--8--8--8--8--8--8--10-10-10-10-10-10-10-10---12-12-12-12-12-12-12-12-12-12-12-12-12-12-12-12-
e--------------------------8--8--8--8--8--8--8--8----10-10-10-10-10-10-10-10-10-10-10-10-10-10-10-10-


e------------------------------------------------------------------------------------
b------------------------------------------------------------------------------------
g--10-10-10-10-10-10-10-10-9--9--9--9--9--9--9--9------------------------------------
d--10-10-10-10-10-10-10-10-10-10-10-10-10-10-10-10-----------------------------------
a--8--8--8--8--8--8--8--8--10-10-10-10-10-10-10-10---7-7-7-7-7-7-7-7-8-8-8-8-8-8-8-8-
e--------------------------8--8--8--8--8--8--8--8----5-5-5-5-5-5-5-5-6-6-6-6-6-6-6-6-


e------------------------------------------------------------------------------
b------------------------------------------------------------------------------
g------------------------------------------------------------------------------
d---x-x-x-x-x-x-x-x-x-x-x-x-x-x-x-x-x-x-x-x-x-x-x-x-x-x-x-x-x-x-x-x-x-x-x-x-x-x
a---x-x-x-x-x-x-x-x-x-x-x-x-x-x-x-x-x-x-x-x-x-x-x-x-x-x-x-x-x-x-x-x-x-x-x-x-x-x
e------------------------------------------------------------------------------
pm_____________________________________________________________________________


e---8-8-8-8-8-8---5-5---------5-5--------5-5--------8-8-8-8-8-8----------------
b-----------------6-6---------6-6--------6-6-----------------------------------
g-----------------7-7---------7-7--------7-7----------------------------------- repeat until the
d---------------------x-x-x-x----x-x-x-x----x-x-x-x---------------------------- last time and 
a---------------------x-x-x-x----x-x-x-x----x-x-x-x---------------------------- play....
e------------------------------------------------------------------------------


e--5-5---------5-5---------5-5-5-5-5-------------------------------------------
b--6-6---------6-6---------6-6-6-6-6-------------------------------------------
g--7-7---------7-7---------7-7-7-7-7-------------------------------------------
d------x-x-x-x-----x-x-x-x-----------------------------------------------------
a------x-x-x-x-----x-x-x-x-----------------------------------------------------
e------------------------------------------------------------------------------

[ Tab from: http://www.guitartabs.cc/tabs/r/red_hot_chili_peppers/by_the_way_crd.html ]
e---------------------------------------------------------------------------------
b---------------------------------------------------------------------------------
g---------------------------------------------------------------------------------
d-10-10-10-10-10-10-10-10-10-10-10-10-10-10-10-10---------------------------------
a-8--8--8--8--8--8--8--8--7--7--7--7--7--7--7--7--7-7-7-7-7-7-7-7-7-7-7-7-7-7-7-7-
e-------------------------------------------------5-5-5-5-5-5-5-5-5-5-5-5-5-5-5-5-

e-------------------------------------------------------------------------------------
b-------------------------------------------------------------------------------------
g-------------------------9--9--9--9--9--9--9--9--5-5-5-5-5-5-5-5-5-5-5-5-------------
d-10-10-10-10-10-10-10-10-10-10-10-10-10-10-10-10-7-7-7-7-7-7-7-7-7-7-7-7/14-14-12-12-
a-8--8--8--8--8--8--8--8--7--7--7--7--7--7--7--7--7-7-7-7-7-7-7-7-7-7-7-7-------------
e-------------------------------------------------5-5-5-5-5-5-5-5-5-5-5-5-------------

e---------------------------------------------------------------------------------
b---------------------------------------------------------------------------------
g---------------------------------------------------------------------------------
d-10-10-10-10-10-10-10-10-10-10-10-10-10-10-10-10---------------------------------
a-8--8--8--8--8--8--8--8--7--7--7--7--7--7--7--7--7-7-7-7-7-7-7-7-7-7-7-7-7-7-7-7-
e-------------------------------------------------5-5-5-5-5-5-5-5-5-5-5-5-5-5-5-5-

e---------------------------------------------------------------------5-5-5-5-----------
b---------------------------------------------------------------------5-5-5-5-----------
g-------------------------9--9--9--9--9--9--9--9--5-5-5-5-5-5-5-5-5-5-5-5-5-5-----------
d-10-10-10-10-10-10-10-10-10-10-10-10-10-10-10-10-7-7-7-7-7-7-7-7-7-7-7-7-7-7-----------
a-8--8--8--8--8--8--8--8--7--7--7--7--7--7--7--7--7-7-7-7-7-7-7-7-7-7-7-7-7-7-----------
e-------------------------------------------------5-5-5-5-5-5-5-5-5-5-5-5-5-5-----------

e--5------------5------------5-----------------------5-------8-8-8-8-8-8-------
b--6------------6------------6-----------------------6-------------------------
g--7------------7------------7-----------------------7-------------------------
d------------------------------------------------------------------------------
a------------------------------------------------------------------------------
e------------------------------------------------------------------------------

e---8-8-8-8-8-8---5-5---------5-5--------5-5--------8-8-8-8-8-8----------------
b-----------------6-6---------6-6--------6-6-----------------------------------
g-----------------7-7---------7-7--------7-7----------------------------------- repeat until the
d---------------------x-x-x-x----x-x-x-x----x-x-x-x---------------------------- last time and 
a---------------------x-x-x-x----x-x-x-x----x-x-x-x---------------------------- play....
e------------------------------------------------------------------------------


e--5-5---------5-5---------5-5-5-5-5-------------------------------------------
b--6-6---------6-6---------6-6-6-6-6-------------------------------------------
g--7-7---------7-7---------7-7-7-7-7-------------------------------------------
d------x-x-x-x-----x-x-x-x-----------------------------------------------------
a------x-x-x-x-----x-x-x-x-----------------------------------------------------
e------------------------------------------------------------------------------


e----------------------------------------------------------------------------------------------------
b----------------------------------------------------------------------------------------------------
g--10-10-10-10-10-10-10-10-9--9--9--9--9--9--9--9----------------------------------------------------
d--10-10-10-10-10-10-10-10-10-10-10-10-10-10-10-10---12-12-12-12-12-12-12-12-12-12-12-12-12-12-12-12-
a--8--8--8--8--8--8--8--8--10-10-10-10-10-10-10-10---12-12-12-12-12-12-12-12-12-12-12-12-12-12-12-12-
e--------------------------8--8--8--8--8--8--8--8----10-10-10-10-10-10-10-10-10-10-10-10-10-10-10-10-


e------------------------------------------------------------------------------------
b------------------------------------------------------------------------------------
g--10-10-10-10-10-10-10-10-9--9--9--9--9--9--9--9------------------------------------
d--10-10-10-10-10-10-10-10-10-10-10-10-10-10-10-10-----------------------------------
a--8--8--8--8--8--8--8--8--10-10-10-10-10-10-10-10---7-7-7-7-7-7-7-7-8-8-8-8-8-8-8-8-
e--------------------------8--8--8--8--8--8--8--8----5-5-5-5-5-5-5-5-6-6-6-6-6-6-6-6-


e----------------------------------------------------------------------------------------------------
b----------------------------------------------------------------------------------------------------
g--10-10-10-10-10-10-10-10-9--9--9--9--9--9--9--9----------------------------------------------------
d--10-10-10-10-10-10-10-10-10-10-10-10-10-10-10-10---12-12-12-12-12-12-12-12-12-12-12-12-12-12-12-12-
a--8--8--8--8--8--8--8--8--10-10-10-10-10-10-10-10---12-12-12-12-12-12-12-12-12-12-12-12-12-12-12-12-
e--------------------------8--8--8--8--8--8--8--8----10-10-10-10-10-10-10-10-10-10-10-10-10-10-10-10-


e------------------------------------------------------------------------------------
b------------------------------------------------------------------------------------
g--10-10-10-10-10-10-10-10-9--9--9--9--9--9--9--9------------------------------------
d--10-10-10-10-10-10-10-10-10-10-10-10-10-10-10-10-----------------------------------
a--8--8--8--8--8--8--8--8--10-10-10-10-10-10-10-10---7-7-7-7-7-7-7-7-8-8-8-8-8-8-8-8-
e--------------------------8--8--8--8--8--8--8--8----5-5-5-5-5-5-5-5-6-6-6-6-6-6-6-6-


e----------------------------------------------------------------------------------------------------
b----------------------------------------------------------------------------------------------------
g--10-10-10-10-10-10-10-10-9--9--9--9--9--9--9--9----------------------------------------------------
d--10-10-10-10-10-10-10-10-10-10-10-10-10-10-10-10---12-12-12-12-12-12-12-12-12-12-12-12-12-12-12-12-
a--8--8--8--8--8--8--8--8--10-10-10-10-10-10-10-10---12-12-12-12-12-12-12-12-12-12-12-12-12-12-12-12-
e--------------------------8--8--8--8--8--8--8--8----10-10-10-10-10-10-10-10-10-10-10-10-10-10-10-10-


e-----------------------------------------------------------------------5-------------
b-----------------------------------------------------------------------6-------------
g--10-10-10-10-10-10-10-10-9--9--9--9--9--9--9--9-----------------------7-------------
d--10-10-10-10-10-10-10-10-10-10-10-10-10-10-10-10----------------------7-------------
a--8--8--8--8--8--8--8--8--10-10-10-10-10-10-10-10---7-7-7-7-7-8-8-8----5-------------
e--------------------------8--8--8--8--8--8--8--8----5-5-5-5-5-6-6-6------------------

Comments