Red Hot Chili Peppers - By The Way Chords & Tabs

 

By The Way Chords & Tabs

Red Hot Chili Peppers Chords & Tabs

Version: 4 Type: Bass Tab 0 ratings
1 star 2 stars 3 stars 4 stars 5 stars
comments

By The Way Bass Tab

By The Way
Red Hot Chili Peppers
jon_marck@hotmail.com



Intro
G|-10-10-10-10-10-10-10-10--9-9-9-9-9-9-9-9------------|
D|-----------------------------------------------------|
A|-----------------------------------------------------|
E|-----------------------------------------------------|

G|-----------------------------------------------------|
D|-7-7-7-7-7-7-7-7---7-7-7-7-7-7-7-7/------------------|
A|-----------------------------------------------------|
E|-----------------------------------------------------|

1st and 3rd choruses
Standing in line...
G|-17-17-17-17-17-17-17-17--21-21-21-21-21-21-21-21----|
D|-----------------------------------------------------|
A|-----------------------------------------------------|
E|-----------------------------------------------------|

G|-----------------------------------------------------|
D|-19-19-19-19-19-19-19-19--19-19-19-19-19-19----10\---|
A|-----------------------------------------------------|
E|-----------------------------------------------------|

G|-----------------------5-5-5-5-5-5-5-5---------------|
D|-3-3-3-3-3-3-3-3-------------------------------------|
A|-----------------------------------------------------|
E|-----------------------------------------------------|

G|-2-2-2-2-2-2-2-2----2-2-2-2-2-2-2/-------------------|
D|-----------------------------------------------------|
A|-----------------------------------------------------|
E|-----------------------------------------------------|

Dani the girl...
G|-17-17-17-17-17-17-17-17----21-21-21-21-21-21-21-21--|
D|-----------------------------------------------------|
A|-----------------------------------------------------|
E|-----------------------------------------------------|

G|-----------------------------------------------------|
D|-19-19-19-19-19-19-19-19---19-19-19-19-19-19-19\-----|
A|-----------------------------------------------------|
E|-----------------------------------------------------|
[ Tab from: http://www.guitartabs.cc/tabs/r/red_hot_chili_peppers/by_the_way_btab_ver_4.html ]
(hardcore part (same as solo))
G|-----------------------------------------------------|
D|------------3----------------------------------------|
A|-------3h5------3h5--0h3-----------------------------|
E|-0--0-----0----0----0--------------------------------|

G|-----------------------------------------------------|
D|------------3----------------------------------------|
A|-------3h5------0h3----------------------------------|
E|-0--0-----0----0----0-3h5----------------------------|

G|-----------------------------------------------------|
D|------------3----------------------------------------|
A|-------3h5------3h5--0h3-----------------------------|
E|-0--0-----0----0----0--------------------------------|

G|-----------------------------------------------------|
D|-----------------------------------------------------|
A|-------3h5--5---5/66666------------------------------|
E|-0--0-----0--0---------------------------------------|

2nd and 4th choruses

G|-----------------------------------------------------|
D|--------------7-10--10--10-1010-10-10-10-10----------|
A|-8--8-88--8-8----------------------------------------|
E|-----------------------------------------------------|

G|-----------------------------------------------------|
D|-12--12-1212-12-12-12-12--12-12-1212-12-12-12-10-----|
A|-------------------------------------------------12--|
E|-----------------------------------------------------|

G|-----------------------------------------------------|
D|----------------10--10--10-1010-10-10-10-10----------|
A|-8--8-88--8-8-8--------------------------------------|
E|-----------------------------------------------------|

G|-----------------------------------------------------|
D|-7--7-77-7-7-7-7--8-8-8-8-8-88-----------------------|
A|-------------------------------10--------------------|
E|-----------------------------------------------------|

(repeat, there are different fills for the repeat
but I didn't write them in)

There are other variations that I didn't include but they're
all minor and I'm sure you guys will improvise around the
tab anyways so they're not really important
Comments