Red Hot Chili Peppers - By The Way Chords & Tabs

 

By The Way Chords & Tabs

Red Hot Chili Peppers Chords & Tabs

Version: 10 Type: Bass Tab 0 ratings
1 star 2 stars 3 stars 4 stars 5 stars
comments

By The Way Bass Tab

   
----------------------------------------------------------------------------
			     By The Way - Red Hot Chili Peppers
----------------------------------------------------------------------------

Tabbed By: Bryan	 
E-mail: Fenixtx351@yahoo.com

Tuning: EABG
[ Tab from: http://www.guitartabs.cc/tabs/r/red_hot_chili_peppers/by_the_way_btab_ver_10.html ]
INTRO:
G|17-17-17-17-17-17-17-17--17-17-17-17-17-17-17-17--14-14-14-14-14-14-14-14|
D|15-15-15-15-15-15-15-15--14-14-14-14-14-14-14-14--14-14-14-14-14-14-14-14|
A|-------------------------------------------------------------------------|
E|-------------------------------------------------------------------------|
   Cont.
G|14-14-14-14-14-14-14-14--------------------------------------------------|
D|14-14-14-14-14-14-14-14--------------------------------------------------|
A|-------------------------------------------------------------------------|
E|-------------------------------------------------------------------------|
   (Standing in line to see the show tonight.....)
G|17-17-17-17-17-17-17-17--12-12-12-12-12-12-12-12--16-16-16-16-16-16-16-16|
D|15-15-15-15-15-15-15-15--10-10-10-10-10-10-10-10--14-14-14-14-14-14-14-14|
A|-------------------------------------------------------------------------|
E|-------------------------------------------------------------------------|
   Cont.
G|16-16-16-16-16-16-16-16--------------------------------------------------|
D|14-14-14-14-14-14-14-14-------------------10-10-10-10-10-10-10-10--------|
A|-------------------------8-8-8-8-8-8-8-8---------------------------------|
E|-------------------------------------------------------------------------|
   Cont.
G|---------------------------------10-10-10-10-10-10-10-10-----------------|
D|7-7-7-7-7-7-7-7-7-7-7-7-7-7-7-7------------------------------------------|
A|-------------------------------------------------------------------------|
E|-------------------------------------------------------------------------|
  



   Cont.
G|17-17-17-17-17-17-17-17--14-14-14-14-14-14-14-14-14-14-14-14-14-14-14-14~|
D|-------------------------------------------------------------------------|
A|-------------------------------------------------------------------------|
E|-------------------------------------------------------------------------|
   (Steak knife, Card shark, Con job, Boot cut.....)
Verse
G--------------------------------------------------------------------------|
D---------3------------------3-----------------3---------------------------|
A--55-3h5--3h5-0h3---55-3h5---0h3--------55-3h5--3h5-0h3--55-3h5556666-----|
E---------------------------------3h5--------------------------------------|

Chorus
G--------------------------------------------------------------------------|
D---333-5-3-2----222---0-000-0-000-0-22------------------------------------|
A------------333-----------------------------------------------------------|
E--------------------------------------------------------------------------|
Chorus continued
G--------------------------------------------------------------------------|
D---333-5-3-2----222-------------------------------------------------------|
A------------333-------0-000-0-1111-33-------------------------------------|
E--------------------------------------------------------------------------|

***Listen to the song for timing and structure***

                                !!!!!ENJOY!!!!!

| /  slide up
| \  slide down
| H  hammer-on
| P  pull-off
| ~  vibrato
| +  harmonic
| X  Mute note
============================================================================
Comments