Red Hot Chili Peppers - Breaking The Girl Chords & Tabs

 

Breaking The Girl Chords & Tabs

Red Hot Chili Peppers Chords & Tabs

Version: 2 Type: Tab 1 rating
1 star 2 stars 3 stars 4 stars 5 stars
comments

Breaking The Girl Tab

   
ARTIST: RED HOT CHILI PEPPERS
SONG: BREAKING THE GIRL
ALBUM: BLOODSUGARSEXMAGIK

THE BOOK FOR BLOODSUGAR... FEATURES A TERRIBLE VERSION OF THIS SONG. THE VIDEO OF WHEN THIS WAS RECORDED IS CALLED 'FUNKY MONKS' AND IT SHOWS JOHN PLAYING IT FOR RECORDING. IT IS SO COMPLETELY DIFFERENT TO THE BOOK AND I AM SHOCKED AT HOW PEOPLE CAN GET PAYED FOR DOING SOMETHING THAT BAD. 
JOHN USES A 12 STRING BUT I USED A 6 SIMPLY USING MY BOSS PITCH SHIFTER TO GIVE ME A 12 STRING SOUND.
HE ALSO TUNES DOWN A HALF A STEP TO LESSEN THE STRING TENSION.
I'LL PUT A SONG STRUCTURE AT THE BOTTOM. 
HERE YOU GO AND PLEASE DONT HESITATE TO MAIL ME WITH ANY PROBLEMS.

INTRO/VERSE:

  A                  B/A  Am7               D/A                  E/A   A
E----------------------------------------------------------------------9--9--9--9--9--9------------------
B-2--2-2--2-----2-2-2--4--5-5--5------5-5-5--7--7-7--7------7-7-7--9---10-10-10-10-10-10-----------------
G-2--2-2--2-----2-2-2--4--5-5--5------5-5-5--7--7-7--7------7-7-7--9---9--9--9--9--9--9------------------
D-2--2-2--2-----2-2-2--4--5-5--5------5-5-5--7--7-7--7------7-7-7--9---11-11-11-11-11-11-----------------
A-0--0-0--4P0-0-0-0-0--0--0-0--7P0--0-0-0-0--0--0-0--10P0-0-0-0-0--0---0--0--0--0--0--0------------------
E--------------------------------------------------------------------------------------------------------

FILL 1(BASICALLY ANOTHER 8 STRUMS OF A)

  A
E-9--9--9--9--9--9--9--9---------------------------------------------------------------------------------
B-10-10-10-10-10-10-10-10--------------------------------------------------------------------------------
G-9--9--9--9--9--9--9--9---------------------------------------------------------------------------------
D-11-11-11-11-11-11-11-11--------------------------------------------------------------------------------
A-0--0--0--0--0--0--0--0---------------------------------------------------------------------------------
E--------------------------------------------------------------------------------------------------------

 
PRE-CHORUS IS THESE CHORDS:C,G,Am,C,G,F

C=X32010
G=320033
Am=X02210
F=133211

CHORUS:

  Am7      E7/B     C6       G7/D         E7 (FIRST TIME ONLY)
E-----------------------------------------10-10-10-10-10-10-10-10-10-10-10-10-10-10-10-10----------------
B-----------------------------------------9--9--9--9--9--9--9--9--9--9--9--9--9--9--9--9-----------------
G-5-5-5-5--7-7-7-7--9-9-9-9--12-12-12-12--9--9--9--9--9--9--9--9--9--9--9--9--9--9--9--9-----------------
D-5-5-5-5--6-6-6-6--7-7-7-7--9--9--9--9---9--9--9--9--9--9--9--9--9--9--9--9--9--9--9--9-----------------
A-X-X-X-X--X-X-X-X--X-X-X-X--X--X--X--X---7--7--7--7--7--7--7--7--7--7--7--7--7--7--7--7-----------------
E-5-5-5-5--7-7-7-7--8-8-8-8--10-10-10-10-----------------------------------------------------------------
[ Tab from: http://www.guitartabs.cc/tabs/r/red_hot_chili_peppers/breaking_the_girl_tab_ver_2.html ]
 Am7       E7/B     C6       G7/D         FMAJ7    \16 TIMES/
E--------------------------------------------------------------------------------------------------------
B-----------------------------------------10-------------------------------------------------------------
G-5-5-5-5--7-7-7-7--9-9-9-9--12-12-12-12--9--------------------------------------------------------------
D-5-5-5-5--6-6-6-6--7-7-7-7--9--9--9--9---10-------------------------------------------------------------
A-X-X-X-X--X-X-X-X--X-X-X-X--X--X--X--X---8--------------------------------------------------------------
E-5-5-5-5--7-7-7-7--8-8-8-8--10-10-10-10-----------------------------------------------------------------

RHYTHM FILL 2

  F7
E--------------------------------------------------------------------------------------------------------
B-10-10-10-10--9-9-9-9-----------------------------------------------------------------------------------
G-8--8--8--8---7-7-7-7-----------------------------------------------------------------------------------
D-10-10-10-10--9-9-9-9-----------------------------------------------------------------------------------
A-8--8--8--8---7-7-7-7-----------------------------------------------------------------------------------
E--------------------------------------------------------------------------------------------------------


INTERLUDE

   Am                       Dm(hit hard!)
E----------0----------------13-13-13---------------------------------------------------------------------
B----------1----------------15-15-15---------------------------------------------------------------------
G----------2----------------14-14-14---------------------------------------------------------------------
D--2-2-2-2-2-2-2-2-2-2-2-2-------------------------------------------------------------------------------
A--0-0-0-0-0-0-0-0-0-0-0-0-------------------------------------------------------------------------------
E--------------------------------------------------------------------------------------------------------

OUTRO

E-12----12----12----12-----------------------------------------------------------------------------------
B-13-13-13-13-13-13-13-13--12-13-12-13-12-13-12-13-------------------------------------------------------
G----14----14----14----14--13-14-13-14-13-14-13-14-------------------------------------------------------
D--------------------------------------------------------------------------------------------------------
A--------------------------------------------------------------------------------------------------------
E--------------------------------------------------------------------------------------------------------


STRUCTURE:

INTRO RIFF X2
VERSE RIFF X4 ENDING WITH FILL 1 ON LAST TIME
PRE-CHORUS X1
CHORUS RIFF X3 ENDING WITH FILL 2 ON LAST TIME
VERSE RIFF X4 ENDING WITH FILL 1 ON LAST TIME
PRE-CHORUS X1
CHORUS RIFF X3 ENDING WITH FILL 2 ON LAST TIME
INTERLUDE RIFF X8
CHORUS X3 WITH ENDING WITH FILL 2 ON LAST TIME
OUTRO X6

KEY: THE ONLY THING THAT I USED WAS P FOR PULL-OFF

THATS IT!
I MIGHT HAVE MUCKED UP THE STRUCTURE BUT THE REST IS FINE.
I SHALL NOW DO SIR PSYCHO SEXY AND SEXY MEXICAN MAID.
GOOD LUCK
FIONN (YNGWIE41@HOTMAIL.COM)

 

 

 
Comments