Red Hot Chili Peppers - Blood Sugar Sex Magik Chords & Tabs

 

Blood Sugar Sex Magik Chords & Tabs

Red Hot Chili Peppers Chords & Tabs

Version: 1 Type: Tab 4 ratings
1 star 2 stars 3 stars 4 stars 5 stars
comments

Blood Sugar Sex Magik Tab

#----------------------------------PLEASE NOTE--------------------------------#
#This file is the author's own work and represents their interpretation of the#
#song. You may only use this file for private study, scholarship, or research.#
#-----------------------------------------------------------------------------#
#-- File created with Instab - http://www.pconline.com/~smcarey/instab.html --#
#-----------------------------------------------------------------------------#

Author/Artist: Red Hot Chili Peppers
Title: Blood Sugar Sex Magik
Album: Blood Sugar Sex Magik
Transcribed by: Greenie12


Here is a correct version of the song.


Intro: with Distortion

-||-----------------------------------------------------------------|-
-||-----------------------------------------------------------------|-
-||------12--14/16--12/14-------------------------11--12/14--11/12--|-
-||--14--10--12/14--10/12--12/14--------------14---9--10/12---9/10--|-
-||--12--------------------10/12-12-12-12-12--12--------------------|-
-||-----------------------------------------------------------------|-
                                 P.M-------|                                             
                    x3
-|---------------------||-------------------------------------------|-
-|---------------------||-------------------------------------------|-
-|---------------------||------12--14/16--12/14---------------------|-
-|--11/12--------------||--14--10--12/14--10/12--12/14--------------|-
-|---9/10-10-10-10-10--||--12--------------------10/12-12-12-12-12--|-
-|---------------------||-------------------------------------------|-
          P.M-------|                                  P.M-------|                                  

-|------------------------------------------------|-
-|------------------------------------------------|-
-|------11--12/14--11/12--------------------------|-
-|--14---9--10/12---9/10--11/12-------------------|-
-|--12---------------------9/10-10-10-10-10--12\--|-
-|------------------------------------------------|-
                                P.M-------|                                           

Verse: with Wah-Wah
                                   x7
-||-----------------------------------||----------------------------------------|-
-||-----------------------------------||----------------------------------------|-
-||-----------------------------------||----------------------------------------|-
-||-----------------------------------||----------------------------------------|-
-||--0-0-0-0-0-0-0-0-0-0-0-0-0-0-0-0--||--0-0-0-0-0-0-0-0-0-0-0-0-0-0-0-0-------|-
-||-----------------------------------||-----------------------------------12\--|-
          +       +       +       +           +       +       +                     

Chorus:

-|---------------------------------------|---------------------------------|-
-|---------------------------------------|---------------------------------|-
-|---------------------------7-----------|---------------------------------|-
-|-----------------------------9-8-7-----|---------------------------------|-
-|----------7--5-7~~~----------------10--|----------7--5-7~~~--------4--5--|-
-|--0--0-0-------------------------------|--0--0-0-------------3--5--------|-
        
Bridge:                                                                      

-|--------------------13-13-13-13-13-13-13-13-13-13-13-13-13\--|-
-|--------------------13-13-13-13-13-13-13-13-13-13-13-13-13\--|-
-|--10--10--10--10----13-13-13-13-13-13-13-13-13-13-13-13-13\--|-
-|--10--10--10--10---------------------------------------------|-
-|---8---8---8---8---------------------------------------------|-
-|-------------------------------------------------------------|-
                                                                              

-|----------------------|-
-|--12--12--12--12--12--|-
-|--12--12--12--12--12--|-
-|--12--12--12--12--12--|-
-|--10--10--10--10--10--|-
-|----------------------|-
  
Interlude:                                                                            
[ Tab from: http://www.guitartabs.cc/tabs/r/red_hot_chili_peppers/blood_sugar_sex_magik_tab.html ]
-|-----------------------|-----------------------------|-----------------------|-
-|-----------8-----------|-----------8h10--8-----------|-----------8-----------|-
-|--9--7--9-----9--7--9--|--9--7--9-----------9--7--9--|--9--7--9-----9--7--9--|-
-|-----------------------|-----------------------------|-----------------------|-
-|-----------------------|-----------------------------|-----------------------|-
-|-----------------------|-----------------------------|-----------------------|-
                                                                              
                                                                   w/Wah-Wah
-|-----------------------------|-----------------------|------------)----------|-
-|-----------8h10--8-----------|-----------8-----------|-----------8-----------|-
-|--9--7--9-----------9--7--9--|--9--7--9-----9--7--9--|--9--7--9-----9--7--9--|-
-|-----------------------------|-----------------------|-----------------------|-
-|-----------------------------|-----------------------|-----------------------|-
-|-----------------------------|-----------------------|-----------------------|-
                                                                              
Guitar Solo: with Wah-Wah

-|-----------------------|---------------------------------------------------|-
-|---------------)-----)-|----)-----)--12--15p12---)--15--12--0-------)------|-
-|-------------14----14--|--14----14-------------14-----------0--14-14----0--|-
-|-----------------------|---------------------------------------------------|-
-|-----------------------|---------------------------------------------------|-
-|-----------------------|---------------------------------------------------|-
                                                                              

-|------------------------------------------------|------------------------------------|-
-|--12)-----12)-----------------------------------|--------)\-------------)\-----------|-
-|--14---0--14----14p12----12~~~~---12--14p12-----|--12--14--p12----12--14--p12----12--|-
-|----------------------14--------------------14--|--------------14-------------14-----|-
-|------------------------------------------------|------------------------------------|-
-|------------------------------------------------|------------------------------------|-

-|-----------------------------|----------)-----------------------------|-
-|----)\-------------)\--------|--------15--15----)\-------------)------|-
-|--14--p12----12--14--p12-----|--12------------14--p12----12--14-------|-
-|----------14-------------14--|------------------------14----------12--|-
-|-----------------------------|----------------------------------------|-
-|-----------------------------|----------------------------------------|-

-|------------------------------------|-------------------------------------|-
-|---)---------)----)----)---------)--|---)---------)----0-3--)--0-3-2--)\--|-
-|--2---------2----2----2---------2---|--2---------2---------2---------2----|-
-|------------------------------------|-------------------------------------|-
-|------------------------------------|-------------------------------------|-
-|------------------------------------|-------------------------------------|-

-|--------------------------------------------12)--|--12)--12----)--------------------------|-
-|--------------------------------------------15---|--15-------15--12--15p12----12---)\-----|-
-|-------------------------------------------------|-------------------------15----14--p12--|-
-|--0h2~~~~~~-----------------2--2~~~----0---------|----------------------------------------|-
-|-------------------)-----------------------------|----------------------------------------|-
-|---------------0--3------------------------------|----------------------------------------|-
                      
-|----------------------------------------|---------------------------|-
-|----------------------)-----------------|---------------------------|-
-|-----12h14p12----)---|------------------|---------------------------|-
-|--14-----------14--(14)--(14)-feedback--|--(14)\4------x--feedback--|-
-|----------------------------------------|---------------------------|-
-|----------------------------------------|----------3/---------------|-

Guitar 2...tremolo pick

-|--10-10-10-10...--11-11-11-11...--12-12-12-12...--|--/15-15-15-15...--15\--|-
-|--10-10-10-10...--11-11-11-11...--12-12-12-12...--|--/15-15-15-15...--15\--|-
-|--10-10-10-10...--11-11-11-11...--12-12-12-12...--|--/15-15-15-15...--15\--|-
-|--------------------------------------------------|------------------------|-
-|--------------------------------------------------|------------------------|-
-|--------------------------------------------------|------------------------|-

Guitar 2 during Chorus:

-|---------------------|----------------------------|-
-|---------------------|----------------------------|-
-|--13--11--13-(13)\9--|--13--11--13----------6--7--|-
-|---------------------|----------------5--7--------|-
-|---------------------|----------------------------|-
-|---------------------|----------------------------|-

-|---------------------|----------------------------|-
-|---------------------|----------------------------|-
-|--13--11--13-(13)\9--|--13--11--13----------6--7--|-
-|---------------------|----------------5--7--------|-
-|---------------------|----------------------------|-
-|---------------------|----------------------------|-

)    = bend
)\   = bend & release
)\p  = bend, release & pull-off
/    = Slide up
\    = Slide down
h    = Hammer on
p    = Pull off
.    = Tremolo pick
P.M  = Mute the strings with your 
picking hand palm, right over the
bridge
(14) = Ghost note, it´s not picked,
usually sustained
+    = Wah-Wah in treble position,
fully depressed
x    = Mute string
Comments