Red Hot Chili Peppers - Around The World Chords & Tabs

 

Around The World Chords & Tabs

Red Hot Chili Peppers Chords & Tabs

Version: 7 Type: Tab 0 ratings
1 star 2 stars 3 stars 4 stars 5 stars
comments

Around The World Tab

   
Red Hot Chili Peppers Around The World Ver 5 Guitar Tab


Red Hot Chili Pepperes - All Around the World


artist: Red Hot Chili Peppers
song:   All Around the World
tab:    dardanmetushi@hotmail.com
tuning: EBGDAE

E||------------------|
B||------------------|
G||------------------|
D||------------------|
A||------------------|
E||------------------|


--12-12-12-12-12-12-12-12-12-12-12-12-12-|
--12-12-12-12-12-12-12-12-12-12-12-12-12-|
--14b16-16-14b16-16-14b16-16-14b16-16-16-|
-----------------------------------------|
-----------------------------------------|
-----------------------------------------|

--12-12-12-12-12-12-12-12-12-12-12-12-12-|
--12-12-12-12-12-12-12-12-12-12-12-12-12-|
--14b16-16-14b16-16-14b16-16-14b16-16-16-|
-----------------------------------------|
-----------------------------------------|
-----------------------------------------|

--12-12-12-12-12-12-12-12-12-12-12-12-12-|
--12-12-12-12-12-12-12-12-12-12-12-12-12-|
--14b16-16-14b16-16-14b16-16-14b16-16-16-|
-----------------------------------------|
-----------------------------------------|
-----------------------------------------|

--12-12-12-12-12-12-12-12-12-12-12-12-12-|
--12-12-12-12-12-12-12-12-12-12-12-12-12-|
--14b16-16-14b16-16-14b16-16-14b16-16-16-|
-----------------------------------------|
-----------------------------------------|
-----------------------------------------|

--12-12-12-12-12-12-12-12-12-12-12-12-12-|
--12-12-12-12-12-12-12-12-12-12-12-12-12-|
--14b16-16-14b16-16-14b16-16-14b16-16-16-|
-----------------------------------------|
-----------------------------------------|
-----------------------------------------|

--12-12-12-12-12-12-12-12-12--------|
--12-12-12-12-12-12-12-12-12--------|
--14b16-16-14b16-16-14b16-16--------|
------------------------------------|
------------------------------------|
------------------------------------|

------------------------------|
------------------------------|
------------------------------|
--3-5-3-5-3-5--0-3-5-3-5----0-|
------------------------------|
------------------------------|

------------------------------|
------------------------------|
------------------------------|
--3-5-3-5-3-5--0-3-5-3-5----0-|
------------------------------|
------------------------------|

------------------------------|
------------------------------|
------------------------------|
--3-5-3-5-3-5--0-3-5-3-5----0-|
------------------------------|
------------------------------|

------------------------------|
------------------------------|
------------------------------|
--3-5-3-5-3-5--0-3-5-3-5----0-|
------------------------------|
------------------------------|

------------------------------|
------------------------------|
------------------------------|
--3-5-3-5-3-5--0-3-5-3-5----0-|
------------------------------|
------------------------------|

------------------------------|
------------------------------|
------------------------------|
--3-5-3-5-3-5--0-3-5-3-5----0-|
------------------------------|
------------------------------|

------------------------------|
------------------------------|
------------------------------|
--3-5-3-5-3-5--0-3-5-3-5----0-|
------------------------------|
------------------------------|

------------------------------|
------------------------------|
------------------------------|
--3-5-3-5-3-5--0-3-5-3-5----0-|
------------------------------|
------------------------------|

------------------------------|
------------------------------|
------------------------------|
--3-5-3-5-3-5--0-3-5-3-5----0-|
------------------------------|
------------------------------|

-----------------------------|
-----------------------------|
-----------------------------|
--3-5-3-5-3-5--0-3-5-3-5-----|
-----------------------------|
-----------------------------|

-------------------------------|
-------------------------------|
------------------------8------|
--10---10---8-8-10--10-----10--|
-------------------------------|
-------------------------------|

-------------------------------|
-------------------------------|
------------------------10--8--|
--8h10--10---8--10--10---------|
-------------------------------|
-------------------------------|

----------------------------|
----------------------------|
---------------------8------|
--8h10------------------10--|
---------10----11-----------|
----------------------------|

-----------------------------|
-----------------------------|
-----------------------------|
-------------------8-8----8--|
--10------10----10-----10----|
-----------------------------|

-------------------------------|
-------------------------------|
------------------------8------|
--10---10---8-8-10--10-----10--|
-------------------------------|
-------------------------------|

-------------------------------|
-------------------------------|
------------------------10--8--|
--8h10--10---8--10--10---------|
-------------------------------|
-------------------------------|

----------------------------|
----------------------------|
---------------------8------|
--8h10------------------10--|
---------10----11-----------|
----------------------------|

-----------------------------|
-----------------------------|
----------------------8------|
--8h10--10---8--10-------10--|
-----------------------------|
-----------------------------|

---------------------------|
---------------------------|
---------------------------|
-------------------------0-|
--10---10---10------10-----|
---------------------------|

------------------------------|
------------------------------|
------------------------------|
--3-5-3-5-3-5--0-3-5-3-5----0-|
------------------------------|
------------------------------|

------------------------------|
------------------------------|
------------------------------|
--3-5-3-5-3-5--0-3-5-3-5----0-|
------------------------------|
------------------------------|

------------------------------|
------------------------------|
------------------------------|
--3-5-3-5-3-5--0-3-5-3-5----0-|
------------------------------|
------------------------------|

------------------------------|
------------------------------|
------------------------------|
--3-5-3-5-3-5--0-3-5-3-5----0-|
------------------------------|
------------------------------|

------------------------------|
------------------------------|
------------------------------|
--3-5-3-5-3-5--0-3-5-3-5----0-|
------------------------------|
------------------------------|

------------------------------|
------------------------------|
------------------------------|
--3-5-3-5-3-5--0-3-5-3-5----0-|
------------------------------|
------------------------------|

------------------------------|
------------------------------|
------------------------------|
--3-5-3-5-3-5--0-3-5-3-5----0-|
------------------------------|
------------------------------|

-----------------------------|
-----------------------------|
-----------------------------|
--3-5-3-5-3-5--0-3-5-3-5-----|
-----------------------------|
-----------------------------|

-------------------------------|
-------------------------------|
------------------------8------|
--10---10---8-8-10--10-----10--|
-------------------------------|
-------------------------------|

-------------------------------|
-------------------------------|
------------------------10--8--|
--8h10--10---8--10--10---------|
-------------------------------|
-------------------------------|

----------------------------|
----------------------------|
---------------------8------|
--8h10------------------10--|
---------10----11-----------|
----------------------------|

-----------------------------|
-----------------------------|
-----------------------------|
-------------------8-8----8--|
--10------10----10-----10----|
-----------------------------|

-------------------------------|
-------------------------------|
------------------------8------|
--10---10---8-8-10--10-----10--|
-------------------------------|
-------------------------------|

-------------------------------|
-------------------------------|
------------------------10--8--|
--8h10--10---8--10--10---------|
-------------------------------|
-------------------------------|

-------------------------------|
-------------------------------|
------------------------10--8--|
--8h10--10---8--10--10---------|
-------------------------------|
-------------------------------|

--------------------------|
--------------------------|
--------------------------|
--------------------------|
--10---10---10------10----|
--------------------------|

|---12-12-12-12-12-12-12-12-12-12-12-12-|
|---12-12-12-12-12-12-12-12-12-12-12-12-|
|*--14b16-16-14b16-16-14b16-16-14b16-16-|
|*--------------------------------------|
|---------------------------------------|
|---------------------------------------|

--12-12-12-12-12-12-12-12-12-12-12-12-12-|
--12-12-12-12-12-12-12-12-12-12-12-12-12-|
--14b16-16-14b16-16-14b16-16-14b16-16-16-|
-----------------------------------------|
-----------------------------------------|
-----------------------------------------|

------------------------------|
------------------------------|
------------------------------|
--3-5-3-5-3-5--0-3-5-3-5----0-|
------------------------------|
------------------------------|

------------------------------|
------------------------------|
------------------------------|
--3-5-3-5-3-5--0-3-5-3-5----0-|
------------------------------|
------------------------------|

------------------------------|
------------------------------|
------------------------------|
--3-5-3-5-3-5--0-3-5-3-5----0-|
------------------------------|
------------------------------|

------------------------------|
------------------------------|
------------------------------|
--3-5-3-5-3-5--0-3-5-3-5----0-|
------------------------------|
------------------------------|

------------------------------|
------------------------------|
------------------------------|
--3-5-3-5-3-5--0-3-5-3-5----0-|
------------------------------|
------------------------------|
[ Tab from: http://www.guitartabs.cc/tabs/r/red_hot_chili_peppers/around_the_world_tab_ver_7.html ]
------------------------------|
------------------------------|
------------------------------|
--3-5-3-5-3-5--0-3-5-3-5----0-|
------------------------------|
------------------------------|

------------------------------|
------------------------------|
------------------------------|
--3-5-3-5-3-5--0-3-5-3-5----0-|
------------------------------|
------------------------------|

------------------------------|
------------------------------|
------------------------------|
--3-5-3-5-3-5--0-3-5-3-5----0-|
------------------------------|
------------------------------|

------------------------------|
------------------------------|
------------------------------|
--3-5-3-5-3-5--0-3-5-3-5----0-|
------------------------------|
------------------------------|

-----------------------------|
-----------------------------|
-----------------------------|
--3-5-3-5-3-5--0-3-5-3-5-----|
-----------------------------|
-----------------------------|

-------------------------------|
-------------------------------|
------------------------8------|
--10---10---8-8-10--10-----10--|
-------------------------------|
-------------------------------|

-------------------------------|
-------------------------------|
------------------------10--8--|
--8h10--10---8--10--10---------|
-------------------------------|
-------------------------------|

----------------------------|
----------------------------|
---------------------8------|
--8h10------------------10--|
---------10----11-----------|
----------------------------|

----------------------------|
----------------------------|
----------------------------|
-------------------8-----8--|
--10------10----10----10----|
----------------------------|

-------------------------------|
-------------------------------|
------------------------8------|
--10---10---8-8-10--10-----10--|
-------------------------------|
-------------------------------|

-------------------------------|
-------------------------------|
------------------------10--8--|
--8h10--10---8--10--10---------|
-------------------------------|
-------------------------------|

----------------------------|
----------------------------|
---------------------8------|
--8h10------------------10--|
---------10----11-----------|
----------------------------|

-------------------------------|
-------------------------------|
-------------------------------|
---------------------8-----12--|
--10---10---10----10----10-----|
-------------------------------|

-------------------------------|
-------------------------------|
------------------------8------|
--10---10---8-8-10--10-----10--|
-------------------------------|
-------------------------------|

-------------------------------|
-------------------------------|
------------------------10--8--|
--8h10--10---8--10--10---------|
-------------------------------|
-------------------------------|

----------------------------|
----------------------------|
---------------------8------|
--8h10------------------10--|
---------10----11-----------|
----------------------------|

----------------------------|
----------------------------|
----------------------------|
-------------------8-----8--|
--10------10----10----10----|
----------------------------|

-------------------------------|
-------------------------------|
------------------------8------|
--10---10---8-8-10--10-----10--|
-------------------------------|
-------------------------------|

-------------------------------|
-------------------------------|
------------------------10--8--|
--8h10--10---8--10--10---------|
-------------------------------|
-------------------------------|

----------------------------|
----------------------------|
----------------------------|
-------10---8--10----10--8--|
--6/8-----------------------|
----------------------------|

------------------|
------------------|
------------------|
------------------|
------------------|
------------------|


  Dm Dm Dm Dm Dm Dm Dm Dm Dm Dm Dm Dm Dm
--13-13-13-13-13-13-13-13-13-13-13-13-13-|
--15-15-15-15-15-15-15-15-15-15-15-15-15-|
--14-14-14-14-14-14-14-14-14-14-14-14-14-|
--12-12-12-12-12-12-12-12-12-12-12-12-12-|
-----------------------------------------|
-----------------------------------------|


  Dm Dm Dm Dm Dm Dm Dm Dm Dm Dm Dm Dm Dm
--13-13-13-13-13-13-13-13-13-13-13-13-13-|
--15-15-15-15-15-15-15-15-15-15-15-15-15-|
--14-14-14-14-14-14-14-14-14-14-14-14-14-|
--12-12-12-12-12-12-12-12-12-12-12-12-12-|
-----------------------------------------|
-----------------------------------------|


  A7 A7 A7 A7 A7 A7 A7 A7 A7 A7 A7 A7 A7
--15-15-15-15-15-15-15-15-15-15-15-15-15-|
--17-17-17-17-17-17-17-17-17-17-17-17-17-|
--14-14-14-14-14-14-14-14-14-14-14-14-14-|
--14-14-14-14-14-14-14-14-14-14-14-14-14-|
-----------------------------------------|
-----------------------------------------|


  Bb7Bb7Bb7Bb7Bb7Bb7Bb7Bb7Bb7Bb7Bb7Bb7Bb
--17-17-17-17-17-17-17-17-17-17-17-17-17-|
--18-18-18-18-18-18-18-18-18-18-18-18-18-|
--15-15-15-15-15-15-15-15-15-15-15-15-15-|
--15-15-15-15-15-15-15-15-15-15-15-15-15-|
-----------------------------------------|
-----------------------------------------|


  Dm Dm Dm Dm Dm Dm Dm Dm Dm Dm Dm Dm Dm
--13-13-13-13-13-13-13-13-13-13-13-13-13-|
--15-15-15-15-15-15-15-15-15-15-15-15-15-|
--14-14-14-14-14-14-14-14-14-14-14-14-14-|
--12-12-12-12-12-12-12-12-12-12-12-12-12-|
-----------------------------------------|
-----------------------------------------|


  Dm Dm Dm Dm Dm Dm Dm Dm Dm Dm Dm Dm Dm
--13-13-13-13-13-13-13-13-13-13-13-13-13-|
--15-15-15-15-15-15-15-15-15-15-15-15-15-|
--14-14-14-14-14-14-14-14-14-14-14-14-14-|
--12-12-12-12-12-12-12-12-12-12-12-12-12-|
-----------------------------------------|
-----------------------------------------|


  A7 A7 A7 A7 A7 A7 A7 A7 A7 A7 A7 A7 A7
--15-15-15-15-15-15-15-15-15-15-15-15-15-|
--17-17-17-17-17-17-17-17-17-17-17-17-17-|
--14-14-14-14-14-14-14-14-14-14-14-14-14-|
--14-14-14-14-14-14-14-14-14-14-14-14-14-|
-----------------------------------------|
-----------------------------------------|


  Bb7Bb7Bb7Bb7Bb7Bb7Bb7Bb7Bb7BbsBbsBbsBb
--17-17-17-17-17-17-17-17-17-18-18-18-18-|
--18-18-18-18-18-18-18-18-18-18-18-18-18-|
--15-15-15-15-15-15-15-15-15-15-15-15-15-|
--15-15-15-15-15-15-15-15-15-------------|
-----------------------------------------|
-----------------------------------------|


  Dm Dm Dm Dm Dm Dm Dm Dm Dm Dm Dm Dm Dm
--13-13-13-13-13-13-13-13-13-13-13-13-13-|
--15-15-15-15-15-15-15-15-15-15-15-15-15-|
--14-14-14-14-14-14-14-14-14-14-14-14-14-|
--12-12-12-12-12-12-12-12-12-12-12-12-12-|
-----------------------------------------|
-----------------------------------------|


  Dm Dm Dm Dm Dm Dm Dm Dm Dm Dm Dm Dm Dm
--13-13-13-13-13-13-13-13-13-13-13-13-13-|
--15-15-15-15-15-15-15-15-15-15-15-15-15-|
--14-14-14-14-14-14-14-14-14-14-14-14-14-|
--12-12-12-12-12-12-12-12-12-12-12-12-12-|
-----------------------------------------|
-----------------------------------------|


  A7 A7 A7 A7 A7 A7 A7 A7 A7 A7 A7 A7 A7
--15-15-15-15-15-15-15-15-15-15-15-15-15-|
--17-17-17-17-17-17-17-17-17-17-17-17-17-|
--14-14-14-14-14-14-14-14-14-14-14-14-14-|
--14-14-14-14-14-14-14-14-14-14-14-14-14-|
-----------------------------------------|
-----------------------------------------|


  Bb7Bb7Bb7Bb7Bb7Bb7Bb7Bb7Bb7Bb7Bb7Bb7Bb
--17-17-17-17-17-17-17-17-17-17-17-17-17-|
--18-18-18-18-18-18-18-18-18-18-18-18-18-|
--15-15-15-15-15-15-15-15-15-15-15-15-15-|
--15-15-15-15-15-15-15-15-15-15-15-15-15-|
-----------------------------------------|
-----------------------------------------|


  Dm Dm Dm Dm Dm Dm Dm Dm Dm Dm Dm Dm Dm
--13-13-13-13-13-13-13-13-13-13-13-13-13-|
--15-15-15-15-15-15-15-15-15-15-15-15-15-|
--14-14-14-14-14-14-14-14-14-14-14-14-14-|
--12-12-12-12-12-12-12-12-12-12-12-12-12-|
-----------------------------------------|
-----------------------------------------|


  Dm Dm Dm Dm Dm Dm Dm Dm Dm Dm Dm Dm Dm
--13-13-13-13-13-13-13-13-13-13-13-13-13-|
--15-15-15-15-15-15-15-15-15-15-15-15-15-|
--14-14-14-14-14-14-14-14-14-14-14-14-14-|
--12-12-12-12-12-12-12-12-12-12-12-12-12-|
-----------------------------------------|
-----------------------------------------|


  A7 A7 A7 A7 A7 A7 A7 A7 A7 A7 A7 A7 A7
--15-15-15-15-15-15-15-15-15-15-15-15-15-|
--17-17-17-17-17-17-17-17-17-17-17-17-17-|
--14-14-14-14-14-14-14-14-14-14-14-14-14-|
--14-14-14-14-14-14-14-14-14-14-14-14-14-|
-----------------------------------------|
-----------------------------------------|


  Bb7Bb7Bb7Bb7Bb7Bb7Bb7Bb7Bb7Bb7Bb7Bb7M
--17-17-17-17-17-17-17-17-17-17-17-17---|
--18-18-18-18-18-18-18-18-18-18-18-18---|
--15-15-15-15-15-15-15-15-15-15-15-15---|
--15-15-15-15-15-15-15-15-15-15-15-15---|
----------------------------------------|
----------------------------------------|

This took me a long time so I hope you appreciate it.. Thanks and have fun..

 -Hawkeye
Comments