Red Hot Chili Peppers - Around The World Chords & Tabs

 

Around The World Chords & Tabs

Red Hot Chili Peppers Chords & Tabs

Version: 6 Type: Bass Tab 0 ratings
1 star 2 stars 3 stars 4 stars 5 stars
comments

Around The World Bass Tab

-----------------------------------------------------------------------------
                 RED HOT CHILI PEPPERS - AROUND THE WORLD
-----------------------------------------------------------------------------

tabbed by: Stellar Legs a.k.a "Shaft" a.a.k.a. "Dolemite"
e-mail: uncle_stellar@hotmail.com

tuning: Standard

Yippee! My first bass tab! I thought I'd make it special and tab out this
wonderful song by God himself, also known as Flea (bows at alter). Have at you!:

Intro (distortion)
G--------------------9h7-7--9h7-7--9h7-7--9h7-9------------|
D------------------------------------------------9-8-7-5---|
A----------------------------------------------------------|
E--0~~~----0-0-0-0-----------------------------------------|

G--9h7-7--9h7-7--9h7-7--9h7-7------------|
D------------------------------9-8-7-5---|
A----------------------------------------|
E----------------------------------------|
 Continue until verse


Verse
G------10-12---------9-10-------10-12---------10-9-----|
D--------------------------------------------------8---|
A---9----------7-6-----------9----------7-6------------|
E------------------------------------------------------|

G-------10-12--------9-10-------10-12--------------10-9--------|
D----------------------------------------------8---------10-8--|
A---9----------7-6----------9------------7-9-------------------|
E--------------------------------------------------------------|

G-------10-12---------9-10-------10-12--------------|
D----------------------------------------14^--12^---|
A---9-----------7-6----------9----------------------|
E---------------------------------------------------|
[ Tab from: http://www.guitartabs.cc/tabs/r/red_hot_chili_peppers/around_the_world_btab_ver_6.html ]
G-------10-12---------9-10-------10-12------------10-9~---|
D---------------------------------------------8-----------|
A---9-----------7-6----------9-----------7-9--------------|
E---------------------------------------------------------|

Chorus
G-------5--8-----------7--7----------5--5-------------------------|
D---6~-------------5~------------3------------------5-5---10/-0~--|
A---------------------------------------------3-3-----------------|
E-----------------------------------------------------------------|

After the 2nd Chorus, repeat the Intro riff, until you get to another verse riff
with an alteration at the end.

G-------10-12---------9-10-------10-12---12p10-------------|
D-----------------------------------------------12--10~~---|
A---9-----------7-6----------9-----------------------------|
E----------------------------------------------------------|

Repeat everything you've done up until this Outro riff. There's 2 ways you can
play this riff. I don't have a particular favorite of the two, as I use them both:

Outro (1st way)
G--------------------------------------------------------|
D------3-2--0-0-0-0-0-------------3-2--0-0-0-0-0---------|
A---5------------------0-3-0---5------------------0-3-0--|
E--------------------------------------------------------|

G-----------------------------------------------------|
D------3-2--0-/5-5-5-5-------------3-2--0-/7-7-7-7~---|
A---5-------------------0-3-0---5---------------------|
E-----------------------------------------------------|

Outro (2nd way)
G----------------------------------------------------------|
D----------------------------------------------------------|
A---5---8-7--5-5-5-5-5--0-3-0---5---8-7--5-5-5-5-5--0-3-0--|
E----------------------------------------------------------|

G----------------------------------------------------------------|
D----------------------------------------------------------------|
A---5---8-7--5-5/10-10-10-10---0-3-0--5---8-7--5-5/12-12-12-12~--|
E----------------------------------------------------------------|

~~Fin~~
Comments