Red Hot Chili Peppers - Around The World Chords & Tabs

 

Around The World Chords & Tabs

Red Hot Chili Peppers Chords & Tabs

Version: 3 Type: Bass Tab 0 ratings
1 star 2 stars 3 stars 4 stars 5 stars
comments

Around The World Bass Tab

"Around the world"
Red Hot Chili Peppers
Californication
Tabbed by Karl Kieser
Feedback at kkarl@hotmail.com
Tabbed on june 11th

Intro
G|---------------|------------------------------------------------------|----
D|---------------|-12-h-14-14--12-h-14-14--12-h-14-14-----------|8x's
A|---------------|-----------------------------------14-13-12---------|----
E|--0--0-0-0-0-|--------------------------------------------15-12----|----
Verse1
G|------------------|--------------------|-----------------|-----------------
D|----3-5-----3-5--|--3-5-----5-3-----|----3-5----3-5-|---3-5-----------
A|------------------|--------------5-3--|-----------------|----------5-4-3-1
E|---3-----1-3-----|-3----1-3----------|--3-----1-3----|--3---1-2-3------

G|------------------|-----------------|------------------|--------------------
D|----3-5-----3-5-|---3-5-----------|---3--5----3-5--|---3-5--------------
A|------------------|-------3~--1~--|------------------|----------1---------
E|---3-----1-3-----|-3---------------|--3-----1-3------|--3---1-3---3-------

chorus
G|----------------------------------------|--------------------------------
D|-----------------------------5-5-------|--------------------------------
A|----3-6-------5-5-----0-3--3---------|--x2----------------------------
E|--4--------3--------1------------------|--------------------------------

 Verse2
G|------------------|--------------------|-----------------|-----------------
D|----3-5-----3-5--|--3-5-----5-3-----|----3-5----3-5-|---3-5-----------
A|------------------|--------------5-3--|-----------------|----------5-4-3-1
E|---3-----1-3-----|-3----1-3----------|--3-----1-3----|--3---1-2-3------

G|------------------|-----------------|------------------|--------------------
D|----3-5-----3-5-|---3-5-----------|---3--5----3-5--|---3-5--------------
A|------------------|-------3~--1~--|------------------|----------1---------
E|---3-----1-3-----|-3---------------|--3-----1-3------|--3---1-3---3-------
[ Tab from: http://www.guitartabs.cc/tabs/r/red_hot_chili_peppers/around_the_world_btab_ver_3.html ]
chorus
G|----------------------------------------|--------------------------------
D|-----------------------------5-5-------|--------------------------------
A|----3-6-------5-5-----0-3--3---------|--x2----------------------------
E|--4--------3--------1------------------|--------------------------------

Interlude
G|--------------------------------------------------|-------------------
D|-12-h-14-14--12-h-14-14--12-h-14-14---------------|8x's---------------
A|-----------------------------------14-13-12-------|-------------------
E|--------------------------------------------15-12-|-------------------

Solo
G|------------------|--------------------|---------------------------------
D|----3-5-----3-5-|---3-5---5-3-------|---------------------------------
A|------------------|------------5--3~--|---------------------------------
E|--3-----1-3------|-3------------------|---------------------------------

  Verse3
G|------------------|--------------------|-----------------|-----------------
D|----3-5-----3-5--|--3-5-----5-3-----|----3-5----3-5-|---3-5-----------
A|------------------|--------------5-3--|-----------------|----------5-4-3-1
E|---3-----1-3-----|-3----1-3----------|--3-----1-3----|--3---1-2-3------

G|------------------|-----------------|------------------|--------------------
D|----3-5-----3-5-|---3-5-----------|---3--5----3-5--|---3-5--------------
A|------------------|-------3~--1~--|------------------|----------1---------
E|---3-----1-3-----|-3---------------|--3-----1-3------|--3---1-3---3-------

chorus
G|----------------------------------------|--------------------------------
D|-----------------------------5-5-------|--------------------------------
A|----3-6-------5-5-----0-3--3---------|--x4----------------------------
E|--4--------3--------1------------------|--------------------------------

Ending
G|-------------------------------|-------|-------------------------------|------
D|-------------------------------|-------|-------------------------------|------
A|------8-7---------------------|-10x's-|---8-7-10-10-10-10--------|------
E|---10-----10-10-10-8-10-8--|-------|-10----------------8-10-8---|------

G|--------------------------|-----------------------------------------------
D|--------------------------|-----------------------------------------------
A|----8-7-12-12-12-12---|-----------------------------------------------
E|-10----------------------|-----------------------------------------------

Don't forget to E-mail me at kkarl@hotmail.com

Comments