Red Hot Chili Peppers - Annie Wants A Baby Chords & Tabs

 

Annie Wants A Baby Chords & Tabs

Red Hot Chili Peppers Chords & Tabs

Version: 2 Type: Bass Tab 0 ratings
1 star 2 stars 3 stars 4 stars 5 stars
comments

Annie Wants A Baby Bass Tab

ANNIE WANTS A BABY

Intro:

G --------7-7-------------3-3-------|
D ------------------------------2-3-|	x4
A --5-5-5-----5-8-7-1-1-1-----1-----|
E ----------------------------------|


Verses:

G --------7-7-------------3-3-------|
D ------------------------------2-3-|	x8
A --5-5-5-----5-8-7-1-1-1-----1-----|
E ----------------------------------|


 Pre-chorus:

G ---------12--------12-----12--------14-------14-----14-----|
D -----------------------------------------------------------|
A --10-10----10-10----10--------8-8-------8-8------8---------|
E -----------------------------------------------------------|


G -------12-------12----12--------12-------12----12------|
D -------------------------------------------------------|
A -------------------------------------------------------|
E -11-11----11-11----11-----11-11----11-11----11---------|

[ Tab from: http://www.guitartabs.cc/tabs/r/red_hot_chili_peppers/annie_wants_a_baby_btab_ver_2.html ]
G --------12-------12-----12---------14--------14-----14----|
D ----------------------------------------------------------|
A --10-10----10-10----10------12-12------12-12-----12-------|
E ----------------------------------------------------------|

-------11--------11----11------------------------------|
-------------------------------------------------------|
-------------------------------------------------------|
-10-10----10-10----10-----10-10-10-10-10-10-10-10------|

Chorus:

G ------------------------------------------------------------------------------|
D ------------------------------------------------------------------------------|    x3
A --5---5-5---5-5-5-------------------------------------4-4-4----3-3-3----------|
E -------------------3----3-3---3-3-3--6---6-6---6-6-6--------------------------|

G ----------------------------------------------------------------------------|
D ----------------------------------------------------------------------------|
A --5---5-5---5-5-5-------------------------------------4-4-4----3-3-3--1-----|
E -------------------3----3-3---3-3-3--6---6-6---6-6-6------------------------|
Comments