Red Hot Chili Peppers - Animal Bar Chords & Tabs

 

Animal Bar Chords & Tabs

Red Hot Chili Peppers Chords & Tabs

Version: 6 Type: Bass Tab 0 ratings
1 star 2 stars 3 stars 4 stars 5 stars
comments

Animal Bar Bass Tab

-------------------------------------------------------------------------------
                             Animal Bar - Red hot chili peppers
-------------------------------------------------------------------------------
Tabbed by:Red Hot Bass

Tuning: Standerd
intro/Verse/Guitar Solo
G|-6-6--------------------------------6-6--------------------------------|
D|------7----------------------------------7-----------------------------|
A|--------5-5-5-5-5-5-5-5-5-5-5-5-5-----------5-5-5-5-5-5-5-5-5-5-5-5-5--|
E|-----------------------------------------------------------------------|
[ Tab from: http://www.guitartabs.cc/tabs/r/red_hot_chili_peppers/animal_bar_btab_ver_6.html ]
Chorus
G|-----------------------------------7--7--7--7--7--7--6--------------------------------|
D|-------------------------9--9--9------------------------------------------------------|
A|-7--7--7---10---10--10----------------------------------------------------------------|
E|--------------------------------------------------------------------------------------|

Bridge
G|-11-----11-----11-----11------9---7-----7----7---11-----9------9-----|
D|----9-9----9-9----0-0----7-7----0---4-4---55---0----7-7----7-7---7/--|
A|---------------------------------------------------------------------|
E|---------------------------------------------------------------------|
Comments