Red Hot Chili Peppers - Animal Bar Chords & Tabs

 

Animal Bar Chords & Tabs

Red Hot Chili Peppers Chords & Tabs

Version: 5 Type: Bass Tab 0 ratings
1 star 2 stars 3 stars 4 stars 5 stars
comments

Animal Bar Bass Tab

---------------------------------------------------------------------------
		   Animal Bar - Red Hot Chili Peppers
---------------------------------------------------------------------------

Tabbed By : jdc
e-mail: jdc7687@aol.com

Tuning: Standard

Intro/Verse

G|6--6--------------------------|6-6--------------------------|
D|----7~------------------------|---7~------------------------|
A|-----5-5-5-5-5-5-5-5-5-5-5-5-5|----5-5-5-5-5-5-5-5-5-5-5-5-5|
E|------------------------------|-----------------------------|
               1x                      Repeat til Chorus 1

Chorus 1

G|--------------------------------|---------------------7-7-7-7-7-7|
D|---------------------7-7-7-7-7-7|----------------9-9-9-----------|
A|----------------9-9-9-----------|7-7-7--10-10-10-----------------|
E|7-7-7--10-10-10-----------------|--------------------------------|
                         Repeat til Verse 2

Verse 2    
     
G|6-6--------------------------|6-6--------------------------|
D|---7~------------------------|---7~------------------------|
A|----5-5-5-5-5-5-5-5-5-5-5-5-5|----5-5-5-5-5-5-5-5-5-5-5-5-5|
E|-----------------------------|-----------------------------|
                        Repeat til Chorus 2
      
Chorus 2
[ Tab from: http://www.guitartabs.cc/tabs/r/red_hot_chili_peppers/animal_bar_btab_ver_5.html ]
G|--------------------------------|---------------------7-7-7-7-7-7|
D|---------------------7-7-7-7-7-7|----------------9-9-9-----------|
A|----------------9-9-9-----------|7-7-7--10-10-10-----------------|
E|7-7-7--10-10-10-----------------|--------------------------------|
                        Repeat til Verse 3

Verse 3

G|6-6--------------------------|6-6--------------------------|
D|---7~------------------------|---7~------------------------|
A|----5-5-5-5-5-5-5-5-5-5-5-5-5|----5-5-5-5-5-5-5-5-5-5-5-5-5|
E|-----------------------------|-----------------------------|
                        Repeat til Interlude

Interlude

G|--9-----9--9---9-----9--9|--7-----7--7---7-----7--7|
D|----7-7----------7-7-----|----5-5----------5-5-----|
A|7------------7-----------|5------------5-----------|
E|-------------------------|-------------------------|
                        Repeat til Chorus 3

Chorus 3

G|--------------------------------|---------------------7-7-7-7-7-7|
D|---------------------7-7-7-7-7-7|----------------9-9-9-----------|
A|----------------9-9-9-----------|7-7-7--10-10-10-----------------|
E|7-7-7--10-10-10-----------------|--------------------------------|
                        Repeat til last Verse/Ending

Last Verse/Ending

G|6-6--------------------------|6-6--------------------------|6--6~------|
D|---7~------------------------|---7~------------------------|------7~---|
A|----5-5-5-5-5-5-5-5-5-5-5-5-5|----5-5-5-5-5-5-5-5-5-5-5-5-5|---------5~|
E|-----------------------------|-----------------------------|-----------|
Comments