Red Hot Chili Peppers - Animal Bar Chords & Tabs

 

Animal Bar Chords & Tabs

Red Hot Chili Peppers Chords & Tabs

Version: 3 Type: Bass Tab 0 ratings
1 star 2 stars 3 stars 4 stars 5 stars
comments

Animal Bar Bass Tab

I'm not sure if it's all right.

G-6-6--------------------------6-6---------------------------|
D-----7~---------------------------7~------------------------|
A------5-5-5-5-5-5-5-5-5-5-5-5-------5-5-5-5-5-5-5-5-5-5-5-5-|
E------------------------------------------------------------|
Do that as much times needed, then on the very last one do:
G-6-6-----|
D-----7~--|
A-------5-|
E---------|

G----------------------------------|
D----------------------------------|
A----55599912121212121212----------|
E-777------------------------------|

G-------------7777777--------------|
D----------999---------------------|
A-777101010------------------------|
E----------------------------------|(x4)

G-6-6--------------------------6-6---------------------------|
D-----7~---------------------------7~------------------------|
A------5-5-5-5-5-5-5-5-5-5-5-5-------5-5-5-5-5-5-5-5-5-5-5-5-|
E------------------------------------------------------------|
Again do that as much times needed, then on the very last one do:
G-6-6-----|
D-----7~--|
A-------5-|
E---------|

G----------------------------------|
D----------------------------------|
A----55599912121212121212----------|
E-777------------------------------|
[ Tab from: http://www.guitartabs.cc/tabs/r/red_hot_chili_peppers/animal_bar_btab_ver_3.html ]
G-------------7777777--------------|
D----------999---------------------|
A-777101010------------------------|
E----------------------------------|(x4)

G-6-6--------------------------6-6---------------------------|
D-----7~---------------------------7~------------------------|
A------5-5-5-5-5-5-5-5-5-5-5-5-------5-5-5-5-5-5-5-5-5-5-5-5-|
E------------------------------------------------------------|(x2)

G-6-6--------|
D-----7~-----|
A-------5----|
E------------|

G-11---11---11--11---9---9--9---7---7-11---9---9|
D---9-9--9-9--9---7-7-7-7-7--5-5-5-5-5--7-7-7-7-|
A-----------------------------------------------|
E-----------------------------------------------|(x8)

G----------------------------------|
D----------------------------------|
A----55599912121212121212----------|
E-777------------------------------|

G-------------7777777--------------|
D----------999---------------------|
A-777101010------------------------|
E----------------------------------|(x7)

G-6-6--------------------------6-6---------------------------|
D-----7~---------------------------7~------------------------|
A------5-5-5-5-5-5-5-5-5-5-5-5-------5-5-5-5-5-5-5-5-5-5-5-5-|
E------------------------------------------------------------|
Do this until the end.
Comments