Red Hot Chili Peppers - American Ghost Dance Chords & Tabs

 

American Ghost Dance Chords & Tabs

Red Hot Chili Peppers Chords & Tabs

Version: 3 Type: Bass Tab 0 ratings
1 star 2 stars 3 stars 4 stars 5 stars
comments

American Ghost Dance Bass Tab

Played on a four-string fretted bass.
s: slap
p: pop
h: hammer on
p: pull
x: muted note
/: slide up
\: slide down


Intro:

G:---------------------------------------------------------------------------------------|
D:---------------------------------------------------------------------------------------|
A:-5-5-5-5-5-5-5-5-5-5-5-5---------------------------------------------------------------|
E:---------------------------------------------------------------------------------------|

Verse:

G:---------------------------------------------------------------------------------------|
D:---------------------------------------------------------------------------------------|
A:-----4-5-4----------------4-5-4----------------4-5-4----------------4-5-4--------------|
E:-0-0-------6-5-3-0-0--0-0-------6-5-3-0-0--0-0-------6-5-3-0-0--0-0-------6-5-3-0-0----|
[ Tab from: http://www.guitartabs.cc/tabs/r/red_hot_chili_peppers/american_ghost_dance_btab_ver_3.html ]
Chorus:
   p s p s s s s s p s p s s s s s p s p s s s s s p s p s s s s s p s p s
G:---------------------------------------------------------------------------------------|
D:-5---3-----------5---3-----------5---3-----------5---3-----------5---3-----------------|
A:---5---3-----------5---3-----------5---3-----------5---3-----------5---3---------------|
E:---------0-0-0-0---------0-0-0-0---------0-0-0-0---------0-0-0-0-----------------------|

Bridge:

G:---------------------------------------------------------------------------------------|
D:---------------------------------------------------------------------------------------|
A:---------------------------------------------------------------------------------------|
E:-0--0----0--0----0--0----0--0----0--0----0--0----0--0----0--0--------------------------|

Outro:
   p s p s s s s s p s p s s s s s p s p s
G:---------------------------------------------------------------------------------------|
D:-5---3-----------5---3-----------5---3-------------------------------------------------|
A:---5---3-2-2-2-2---5---3-2-2-2-2---5---3-----------------------------------------------|
E:---------------------------------------------------------------------------------------|
Comments