Red Hot Chili Peppers - Adventures Of Rain Dance Maggie Chords & Tabs

 

Adventures Of Rain Dance Maggie Chords & Tabs

Red Hot Chili Peppers Chords & Tabs

Version: 1 Type: Bass Tab 0 ratings
1 star 2 stars 3 stars 4 stars 5 stars
comments

Adventures Of Rain Dance Maggie Bass Tab

   
----------------------------------------------------------------------------
"The Adventures of Rain Dance Maggie" by  The Red Hot Chili Peppers : BASS Tab
----------------------------------------------------------------------------
Tabbed By : Lespaul1956
e-mail: ewqueale@gmail.com

| /  slide up
| \  slide down
| h  hammer-on
| p  pull-off
| ~  vibrato
| +  harmonic
| x  Mute note

Tuning: Standard (EADG)

intro/verses:

     1   &   2   &   3   &   4   &   1   &   2   &   3   &   4   &
G|------------------------------------------------------------------------|
D|-------------------5-5--------------------------------------------------|
A|---7-------7-----7-----7---5---4---3-------3-----3-5-5-3---5---6--------|
E|------------------------------------------------------------------------|

    1   &   2   &   3   &   4   &   1   &   2   &   3   &   4   &
|------------------------------------------------------------------------|
|-------------------5-5---------5----------------------------------------|
|---7-------7---7-------7---5-------3-------3-----3-5-5-3---2---1--------|
|------------------------------------------------------------------------|
[ Tab from: http://www.guitartabs.cc/tabs/r/red_hot_chili_peppers/adventures_of_rain_dance_maggie_btab.html ]
Chorus:
    1    &    2    &    3    &    4    &   1   &   2   &   3   &   4   &
|-------------12-------------12--------12----------9-----------9-------9--|
|-------------------------------------------------------------------------|
|---10---10--------10---10--------10-------7---7-------7---7-------7------|
|-------------------------------------------------------------------------|

    1    &    2    &    3    &    4    &   1   &   2   &   3   &   4   &
|-------------12-------------12--------12----------9-----------9-------9--|
|-------------------------------------------------------------------------|
|---10---10--------10---10--------10-------7---7-------7---7-------7------|
|-------------------------------------------------------------------------|

   1   &   2   &   3   &   4   &   1   &   2   &   3   &   4   &
|-------------------------------------------------------------------------|
|----------10----------10------10----------9-----------9-------9----------|
|-------------------------------------------------------------------------|
|--8---8-------8---8-------8-------7---7-------7---7-------7--------------|

   1   &   2   &   3   &   4   &   1   &   2   &   3   &   4   &
|-------------------------------------------------------------------------|
|----------7-----------7--------------------------------------------------|
|------------------------------3h4h5---5---5---5---5---5---5---5/---------|
|--5---5-------5---5-------5----------------------------------------------|


Thats It! feel free to slap and pluck in the chorus to add some feel, this is tabbed the 
way thet flea does it in the song. email me, comments questions,ect.
Comments