Red - Feed The Machine Chords & Tabs

 

Feed The Machine Chords & Tabs

Red Chords & Tabs

Version: 1 Type: Bass Tab 0 ratings
1 star 2 stars 3 stars 4 stars 5 stars
comments

Feed The Machine Bass Tab

Guitar Muted intro 

Bass comes in 0:18

G|------------------------------------------------------------|
D|------------------------------------------------------------|
A|------------------------------------------------------------|
E|---------5-------------------------------5------------------|
A|-0-6-0-6---0-6-0-8-0-6-0-5-0-3h5-0-6-0-6---0-6-0-8-0-6-0-3b-|


G|---------------------------------------------------------------------|
D|---------------------------------------------------------------------|
A|---------------------------------------------------------------------|
E|---------5-------------------------------5---------------------------|
A|-0-6-0-6---0-6-0-8-0-6-0-5-0-3h5-0-6-0-6---0-6-0-8-0-6-0-5-0-3h6-0-0-|

Pre-Verse 0:37

G|-----------------------------------------------------------------|
D|-----------------------------------------------------------------|
A|-----------------------------------------------------------------|
E|-----------------------------------------------------------------|
A|-------8~-------3~-------5~--55-5555-----------------------------|

Verse - 0:40

G|--------------------------------------------------------------------------|
D|--------------------------------------------------------------------------|
A|--------------------------------------------------------------------------|
E|--------------------------6-----------------------------------------------|
A|----0-0---0h3/6-0-0---0h3---0-0---0h3/6-0-0---0-3h6---8~--3~--5~--55-5555-|

Pre-Chorus - 0:52

G|--------------------------------------------------------------------------|
D|--------------------------------------------------------------------------|
A|--------------------------------------------------------------------------|
E|----------5--------------------------5------------------------------------|
A|--0-6-0-6---0-6-0-8-0-6-0-5--0-6-0-6---0-6-0-8-0-6-0-5-0-3----------------|

0:58

G|--------------------------------------------------------------------------|
D|--------------------------------------------------------------------------|
A|--------------------------------------------------------------------------|
E|----------5---------------------------5-----------------------------------|
A|--0-6-0-6---0-6-0-8--0-6-0-5--0-6-0-6---0-6-0-8-0-6-0-5-0-3-6-------------|


Chorus - 1:03

G|--------------------------------------------------------------------------|
D|--------------------------------------------------------------------------|
A|--------------------------------------------------------------------------|
E|--------------------------------------------------------------------------|
A|--8(x16)-5(x16)-0(x12)-12\--8(x16)-10(x12)-5555---------------------------|

1:17

G|--------------------------------------------------------------------------|
D|--------------------------------------------------------------------------|
A|--------------------------------------------------------------------------|
E|--------------------------------------------------------------------------|
A|--00-00-00-00-00-3h6-00-00-00-00------------------------------------------|

1:23

G|------------------------------------------------------------|
D|------------------------------------------------------------|
A|------------------------------------------------------------|
E|---------5-------------------------------5------------------|
A|-0-6-0-6---0-6-0-8-0-6-0-5-0-3h5-0-6-0-6---0-6-0-8-0-6-0-3b-|
[ Tab from: http://www.guitartabs.cc/tabs/r/red/feed_the_machine_btab.html ]
G|---------------------------------------------------------------------|
D|---------------------------------------------------------------------|
A|---------------------------------------------------------------------|
E|---------5-------------------------------5---------------------------|
A|-0-6-0-6---0-6-0-8-0-6-0-5-0-3h5-0-6-0-6---0-6-0-8-0-6-0-5-0-3h6-0-0-|

Verse - 1:43 

G|-----------------------------------------------------------------|
D|-----------------------------------------------------------------|
A|-----------------------------------------------------------------|
E|-----------------------------------------------------------------|
A|-------8~-------3~-------5~--55-5555-----------------------------|


G|--------------------------------------------------------------------------|
D|--------------------------------------------------------------------------|
A|--------------------------------------------------------------------------|
E|--------------------------6-----------------------------------------------|
A|----0-0---0h3/6-0-0---0h3---0-0---0h3/6-0-0---0-3h6---8~--3~--5~--55-5555-

Pre-Chorus - 1:57

G|--------------------------------------------------------------------------|
D|--------------------------------------------------------------------------|
A|--------------------------------------------------------------------------|
E|----------5--------------------------5------------------------------------|
A|--0-6-0-6---0-6-0-8-0-6-0-5--0-6-0-6---0-6-0-8-0-6-0-5-0-3----------------|


G|--------------------------------------------------------------------------|
D|--------------------------------------------------------------------------|
A|--------------------------------------------------------------------------|
E|----------5---------------------------5-----------------------------------|
A|--0-6-0-6---0-6-0-8--0-6-0-5--0-6-0-6---0-6-0-8-0-6-0-5-0-3-6-------------|

Chorus - 2:08

G|--------------------------------------------------------------------------|
D|--------------------------------------------------------------------------|
A|--------------------------------------------------------------------------|
E|--------------------------------------------------------------------------|
A|--8(x16)-5(x16)-0(x12)-12(x4)-8(x16)-10(x12)-5555-------------------------|

2:22

G|--------------------------------------------------------------------------|
D|--------------------------------------------------------------------------|
A|--------------------------------------------------------------------------|
E|--------------------------------------------------------------------------|
A|--00-00-00-00-00-3h6-00-00-00-00-3h6-00-00-00-00-3h6-00-00-00-00-0000-----|

Rest 

2:54

G|----------------------------------------------------------------------|
D|----------------------------------------------------------------------|
A|----------------------------------------------------------------------| x4
E|----------------------------------------------------------------------|
A|-0-0-0-0-000-000-000-00-3-6-------------------------------------------|

Chorus - 3:06

G|--------------------------------------------------------------------------|
D|--------------------------------------------------------------------------|
A|--------------------------------------------------------------------------|
E|--------------------------------------------------------------------------|
A|--8(x16)-5(x16)-0(x12)-12\-8(x16)-10(x12)-5555----------------------------|

Outro - 3:20

G|--------------------------------------------------------------------------|
D|--------------------------------------------------------------------------|
A|--------------------------------------------------------------------------|
E|--------------------------------------------------------------------------|
A|--55-5-55-55-5-55-5-55-55-5555-44-4-44-44-4-44-4-44-44-4444---------------|
Repeat This until the songs over. 
Comments