Recover - Match Like Memory Chords & Tabs

 

Match Like Memory Chords & Tabs

Recover Chords & Tabs

Version: 1 Type: Tab 0 ratings
1 star 2 stars 3 stars 4 stars 5 stars
comments

Match Like Memory Tab

-----------------------------------------------------------------------------
match like memory - Recover
-----------------------------------------------------------------------------



Tuning:drop d tuning

riff 1
e|-4-4-4---4---
B|-4-4-4---4---
G|-4-4-4---4---
D|-4-4-4---4---
A|-4-4-4---4---
E|-4-4-4---4---
PM......

riff 2
e|--4-4-4-4-4--5--1--2----
B|--4-4-4-4-4--5--1--2----
G|--4-4-4-4-4--5--1--2----
D|--4-4-4-4-4--5--1--2----
A|--4-4-4-4-4--5--1--2----
E|--4-4-4-4-4--5--1--2----
[ Tab from: http://www.guitartabs.cc/tabs/r/recover/match_like_memory_tab.html ]
riff 3
e|-----|-----|------|------|---------
B|-----|-----|------|------|---------
G|--7--|--9--|--11--|--13--|--14-----
D|--X--|--X--|--X---|--X---|--X------
A|--5--|--7--|--9---|--11--|--12-----
E|-----|-----|------|------|---------
  X8     X8    X5     X3      X3

riff 4

e|--------0----------0----------0----------0---------0-----
B|------0---------0-----------0----------0---------0-------
G|--8/9-------7/8---------5/6--------4/5------7/8----------
D|---------------------------------------------------------
A|---------------------------------------------------------
E|---------------------------------------------------------

*riff 5 is just riff 2 but palm muted
*riff 6 is just riff 3 but it goes to G---16---
                                      D---X----
                                      A---14---
order:
riff 1
riff 2
riff 5
riff 1 
riff 2
riff 3
riff 4
riff 3
riff 4
riff 2
riff 5
riff 2
riff 3
riff 6
riff 4

if you have any corrections, commets , or anyhting else send it
to monkeyman1551@cs.com
Comments