Recko - Matt Son Chords & Tabs

 

Matt Son Chords & Tabs

Recko Chords & Tabs

Version: 1 Type: Bass Tab 0 ratings
1 star 2 stars 3 stars 4 stars 5 stars
comments

Matt Son Bass Tab

   
www.recko.moonfruit.com
check it out

MATT SONG TABS

MAT SONG
INTR     FAST
G 7----------7----------7----------7--------------------|
D- 7----------7----------7----------7-------------------|
A --55555-----------------------------------------------|
E ---------------55555----77777----55555----------------|

 MAIN RIFF (e.g. after Intro)
[ Tab from: http://www.guitartabs.cc/tabs/r/recko/matt_son_btab.html ]
G -7----------------------------------|
D  7-?4  7-------9------55--77--------|
A -5------7-?4--9-?4--55--77----------|
E ---------5------7------33--55-------|


G -7---------------------------|
D  7-?4  7-------9--------5----|
A -5------7-?4--9-?8----5------|
E ---------5------7--------3---|

VERSE
Play parm mute and fast
G -7-------------------------|
D  7-?8  7-------9------5----|
A -5------7-?8--9-?8--5 ?8---|
E ---------5------7------3---|

Intro
Main Riff
Verse ?4
Main Riff
Verse ?2
Main Riff
Comments