Reborn - Worse Ways Chords & Tabs

 

Worse Ways Chords & Tabs

Reborn Chords & Tabs

Version: 1 Type: Tab 0 ratings
1 star 2 stars 3 stars 4 stars 5 stars
comments

Worse Ways Tab

   
                             __________________
                            |                  |
                            |    WORSE WAYS    |
                            |------------------|
                            | Tabs/lyks:Albert |
                            |__________________|

====================================================================================================

Notations:
h= hamer
p= pull-off
B= bending/full
R= release
====================================================================================================

Albert= guitar1
Rodney= guitar2

Intro:
guitar1
e|------------------------------------------------|
B|------------------------------------------------|
G|------p-p---------------p-p---------------------|
D|--5-x-5-5------p-p--9-x-9-9------p-p------p-p---|
A|--3-x-3-3--7-x-7-7--7-x-7-7--3-x-3-3--5-x-5-5---|
E|--x------5-x-5-5-------------1-x-1-1--3-x-3-3---|

====================================================================================================

Intro:
guitar2
e|--13p12p10----------------------|
B|----------13p12p10--------------|
G|-------------------12b(14)r(12)-|
D|--------------------------------|
A|--------------------------------|
E|--------------------------------|

e|--13p12p10----------------------|
B|----------13p12p10--------------|
G|-------------------10b(12)------|
D|--------------------------------|
A|--------------------------------|
E|--------------------------------|

e|--13p12p10----------------------|
B|----------13p12p10--------------|
G|-------------------12b(14)r(12)-|
D|--------------------------------|
A|--------------------------------|
E|--------------------------------|

e|--13p12p10-----------------|------------|
B|----------13p12p10--10--10-|-10--10--10-|
G|----------------------12---|-------12---|
D|---------------------------|------------|
A|---------------------------|------------|
E|---------------------------|------------|
===================================================================================================
Verse:
guitar1:
e|------------------------------------------------|
B|------------------------------------------------|
G|------p-p---------------p-p---------------------|
D|--5-x-5-5------p-p--9-x-9-9------p-p------p-p---|
A|--3-x-3-3--7-x-7-7--7-x-7-7--3-x-3-3--5-x-5-5---|
E|--x------5-x-5-5-------------1-x-1-1--3-x-3-3---|
===================================================================================================
Verse
guitar2:
        |C|            |Am|           |Em|            |F|            |G|
[ Tab from: http://www.guitartabs.cc/tabs/r/reborn/worse_ways_tab.html ]
e|----0H3P0-----0|----0H3P0----0|----0H3P0----0|-1--0H3P0----0|-3--3H5P3----0|
B|-1--1----1----0|-1--1----1---0|----0----0---0|-1--1----1---0|-3--3----3---0|
G|-----------0--0|-2--------2--0|-------------0|-2-----------0|-4-----------0|
D|-2------------0|-2-----------0|-2-----------0|-3-----------0|-5-----------0|
A|-3------------0|-------------0|-2-----------0|-3-----------0|-5-----------0|
E|--------------0|-------------0|-------------0|-1-----------0|-3-----------0|

===================================================================================================

Solo:
guitar1 plays this:                
e|-------------------------------|----------------------------------|
B|-------------------------------|----------------------12----------|
G|-----------9-10B(12)R(10)------|---------9-10-10B(12)---12(12)R10-|
D|--9-10-12----------------9-----|-9-10-12--------------------------|
A|-------------------------------|----------------------------------|
E|-------------------------------|----------------------------------|

e|--------------------------------------|----------------------------------------------|
B|--------------------------------------|-13B(15)R(13)-13-12H13P12-10------------------|
G|--9-10-9-^^^^^^-9H10P9----------------|-----------------------------12B(14)R(12)^^^^-|
D|-----------------------12H10P12-------|----------------------------------------------|
A|--------------------------------9--11-|----------------------------------------------|
E|--------------------------------------|----------------------------------------------|

e|--13(15)(13)-13-12----12H13P12P10-|----------|
B|------------------10--------------|--0H13----|
G|----------------------------------|-------12-|
D|----------------------------------|----------|
A|----------------------------------|----------|
E|----------------------------------|----------|

e|-------------------------------------------|-----------x-|
B|-------------------------------------------|-----------5-|
G|-----------9H10P9--------------------------|-----------5-|
D|--10--10H12-------12-10-10-10-10-10-10^^^^-|-----------5-|
A|------------------------10----10-----------|-----------3-|
E|-------------------------------------------|-12--108--x-|

==================================================================================================

Solo:
guitar2:
e|---------------------------------------------------------------------------------|--------|repeat
B|---------------------------------------------------------------------------------|-__---/-|'til
G|-----5-------5-----------------------9-------9-----------------------------------||  |-/--|end of
D|---5---5---5---5-----7-------7-----9---9---9---9-----3-------3-------5-------5---||__|/__-|solo
A|-3-------3---------7---7---7---7-7-------7---------3---3---3---3---5---5---5---5-|---/|  ||
E|-----------------5-------5-----------------------1-------1-------3-------3-------|--/-|__||

==================================================================================================
This song has been praviously  copyrighted (c) in the name of A.Garciduenas, any try to copy or
take name for it will be denied. 
Comments