Reap - Sotbd 2 Chords & Tabs

 

Sotbd 2 Chords & Tabs

Reap Chords & Tabs

Version: 1 Type: Tab 0 ratings
1 star 2 stars 3 stars 4 stars 5 stars
comments

Sotbd 2 Tab

   
URL:www.Reap.at
Song:SOTBD 2
Album: Intoxation

Dropped D-Tuning (b-f#-b-e-g#-c#)

(Intro)
e----------------------------------------|
b----------------------------------------|
g----------------------------------------|  repeat that 4 times
d--------------------------3-5-0-6-0-5-3-|
a----------------------------------------|
d-0-0-0-0-0-0-3p0-0-0-0-0-0--------------|
  . . . . . .     . . . . .
then

e------------------------------------------------I--------------|
b-------------intro 2a---------------------------I-------riff 2-|
g------------------------------------------------I--------------|
d------------6-5-------------6-5-------------6-5-I--0-3-0-6-6-5-|
a------------------------------------------------I--0-3-0-6-6-5-|
d-0-0-0-0-0-0-----0-0-0-0-0-0-----0-0-0-0-0-0----I--0-3-0-6-6-5-|
  . . . . . .     . . . . . .     . . . . . .
repeat intro 2a and then
e-------------|
b-------------|
g-------------|
D-0-6-0-5-0-3-|
a-0-6-0-5-0-3-|
D-0-6-0-5-0-3-|

reapeat intro 1
[ Tab from: http://www.guitartabs.cc/tabs/r/reap/sotbd_2_tab.html ]
then intro 3
e------------------------------------------------------------|
b------------------------------------------------------------|
g------------------------------------------------------------|
d-0-0-0--0-0-0--0-0-0--0-0-1-3-0-0-0--0-0-0--7-6-0-6-5-0-1-3-|
a-0-0-0--0-0-0--0-0-0--0-0-1-3-0-0-0--0-0-0--7-6-0-6-5-0-1-3-|
d-0-0-0--0-0-0--0-0-0--0-0-1-3-0-0-0--0-0-0--7-6-0-6-5-0-1-3-|
  . . .  . . .  . . .  . . . . . . .  . . .  . . . . . . . .
Verse
e------------------------------------------------------------|
b------------------------------------------------------------|
g------------------------------------------------------------|
d-0-0-0--0-0-0--0-0-0--0-0-1-3-0-0-0--0-0-0--7-6-0-6-5-0-1-3-|
a-0-0-0--0-0-0--0-0-0--0-0-1-3-0-0-0--0-0-0--7-6-0-6-5-0-1-3-|
d-0-0-0--0-0-0--0-0-0--0-0-1-3-0-0-0--0-0-0--7-6-0-6-5-0-1-3-|
  . .    . .    . .    . .     . .    . .
chorus:
e----         -----------|
b----         -----------|
g----         -----------|
d-0--    then -----------|
a-0--         -0-1-0-0-1-|
d-0--         -0-1-0-0-1-|
               .   . .

repeat verse

repeat chorus

repeat riff 2 two times

then
e---------------------------|
b---------------------------|
g---------------------------|
d-----------------3-3-6-6-5-|
a-----------------3-3-6-6-5-|
D-0-0-0-0-0-0-0-0-3-3-6-6-5-|
  . . . . . . . .
then Intro

play chorus

then

e------------------------------I-------------------|
b------------------------------I-------------------|
g------------------------------I-------------------|
d------------------------------I-------------------|
a------------------------------I-------------------|
d-0-0-0-0-0-0-0-0- 7times then I-0-0-0-0-0-0-0-0-1-|
  . . . . . . . .                . . . . . . . .
then
e-------------------------------------------------|
b-------------------------------------------------|
g-------------------------------------------------|
d-0-0--0-0--0-0-1-1-3-3--0-0--0-0--0-0--3-3-6-6-5-|
a-0-0--0-0--0-0-1-1-3-3--0-0--0-0--0-0--3-3-6-6-5-|
d-0-0--0-0--0-0-1-1-3-3--0-0--0-0--0-0--3-3-6-6-5-|
  . .  . .  . .          . .  . .  . .
then
e------------                -----------|
b------------                -----------|
g------------  4 times then  -----------|
d------------                -3-3-6-6-5-|
a------5h6-6-                -3-3-6-6-5-|
d-0-0-0------                -3-3-6-6-5-|
  . . .

Outro

e---------------------------------------------------------------------|
b---------------------------------------------------------------------|
g---------------------------------------------------------------------|
d-0-0-0--0-0-0--1-1-1-3-3-3--0-0-0--0-0-0--7-7-7--5-5-5--3-3-3--1-1-1-|
a-0-0-0--0-0-0--1-1-1-3-3-3--0-0-0--0-0-0--7-7-7--5-5-5--3-3-3--1-1-1-|
d-0-0-0--0-0-0--1-1-1-3-3-3--0-0-0--0-0-0--7-7-7--5-5-5--3-3-3--1-1-1-|
  . .    . .                 . .    . .
Comments