Reamonn - Supergirl Chords & Tabs

 

Supergirl Chords & Tabs

Reamonn Chords & Tabs

Version: 2 Type: Tab 0 ratings
1 star 2 stars 3 stars 4 stars 5 stars
comments

Supergirl Tab

   
From Balabin Sergey
e-mail: myregistr@yandex.ru

F#m (244222)
E   (022100)
Asus2 (x02200)
Dsus2 (xx0230)
C#m ((4)46654)



Intro

E||----------|--------------|--------------|--------------|--5-4-5-5h7--7|
B||----------|-0--0--0--0---|-0-h2---2-----|--5p3-2-------|--------------|
G||----------|--------------|--------------|--------------|--------------|
D||----------|--------------|--------------|--------------|--------------|
A||----------|--------------|--------------|--------------|--------------|
E||----------|--------------|--------------|--------------|--------------|


                             (not sure about this part)
E||-5--4--2--4--2----2-----|----------------------------|
B||---------------3--------|--5p3-2---------------------|
G||------------------------|----------4--2-1------------|
D||------------------------|------------------4--0------|
A||------------------------|------------------------4---|
E||------------------------|----------------------------|

Verse


At the end of the verse play this (not realy sure about that)
E||-------------------------------------------------|
B||-------------------------------------------------|
G||--7p6--4-----------------------------------------|
D||----------7-6--4---------------------------------|
A||------------------7--5--4------------------------|
E||-------------------------------------------------|

Chorus

(i don't know how to write a work of the right hand (=D) so you can correct it by ear)




E||---------------------|----------2--0-----------2--0-|
B||-------0----------0--|--(0)-(0)--------(0)-(0)------|
G||--2--2---2--2--2----2|---1---1----------1---1-------|
D||--2--2------2--2-----|---2---2----------2---2-------|
A||--0--0------0--0-----|---2---2----------2---2-------|
E||--0--0------0--0-----|---0---0----------0---0-------|


E||-----------4---2-----------------4---2-----|---------0-----------0-------|
B||--(2)-(2)-(2)-(2)-------(2)-(2)-(2)-(2)----|--3--3-----3--3--3-----3-----|
G||---2---2-----------------2---2-------------|--2--2--------2--2-----------|
D||---4---4-----------------4---4-------------|--0--0--------0--0-----------|
A||---4---4-----------------4---4-------------|-(0)(0)------(0)(0)----------|
E||---2---2-----------------2---2-------------|-----------------------------|

[ Tab from: http://www.guitartabs.cc/tabs/r/reamonn/supergirl_tab_ver_2.html ]
Then repeat first 3 parts and play something like this(instead of 4th chorus part):


E||---------0--------5--0-----|
B||--3--3-------3---------3---|
G||--2--2---------2---------2-|
D||--0--0---------------------|
A||-(0)(0)--------------------|
E||---------------------------|

Some sort of solo



E||---10-9-10---------------------------------------------------10-10h12-12-|
B||-------------------------------7/9--7~-\----------------10h12------------|
G||----------------7-6-7----6~--------------/7--9--9/11~--------------------|
D||-------------------------------------------------------------------------|
A||-------------------------------------------------------------------------|
E||-------------------------------------------------------------------------|


E||---10-12-10-9~------|
B||--------------------|
G||--------------------|
D||--------------------|
A||--------------------|
E||--------------------|


Verse

At the end play this

E||-------------------------------------------------------------------------|
B||-------------------------------------------------------------------------|
G||----7-9-6----------------------------------------------------------------|
D||----------7-9-6--4--2---0---0--2-----------------------------------------|
A||--------------------------4-------5---4---2------------------------------|
E||----------------------------------------------5--------------------------|


Then play the chorus again two times

Next part begins with words:

   "She is a supe-er girl!"

E||---------------------------|--------------------------|------------------|
B||---------------------------|--------------------------|------------------|
G||-2-22--2-2-2---2-22--2-2-2-|-1-11--1-1-1---1-11-1-1-1-|-2-22--2-2-2------|
D||-2-22--2-2-2---2-22--2-2-2-|-2-22--2-2-2---2-22-2-2-2-|-4-44--4-4-4------|
A||-0-00--0-0-0---0-00--0-0-0-|-2-22--2-2-2---2-22-2-2-2-|-4-44--4-4-4------|
E||-0-00--0-0-0---0-00--0-0-0-|-0-00--0-0-0---0-00-0-0-0-|-2-22--2-2-2------|

E||------------------|-------------------------|       |------|
B||------------------|-------------------------|       |--(0)-|
G||-2-22--2-2-2------|-2-22-2-2-2---2-22-2-2-2-| x2    |---2--|
D||-4-44--4-4-4------|-0-00-0-0-0---0-00-0-0-0-|       |---2--|
A||-4-44--4-4-4------|-0-00-0-0-0---0-00-0-0-0-|       |---0--|
E||-2-22--2-2-2------|-------------------------|       |---0--|



*You can also use the C#m chord instead of E chord

Please, sorry for my English =)
Comments