Reamonn - Josephine Chords & Tabs

 

Josephine Chords & Tabs

Reamonn Chords & Tabs

Version: 1 Type: Bass Tab 0 ratings
1 star 2 stars 3 stars 4 stars 5 stars
comments

Josephine Bass Tab

Reamonn - Josephine

This  Tab  is transcripted  from the  Original
G-Tuning  to  a C-Tuning!  It's now easier for
girls to sing that song!

Hear  the song  to get and  feel the rythm and
maybe get some improvised tones!

Introverse:

G|-------------------------------------------|
D|-------------------------------------------|
A|--3----------------------------------------|
E|----------------------1--------------------|

Chorus:
[ Tab from: http://www.guitartabs.cc/tabs/r/reamonn/josephine_btab.html ]
G|-------------------------------------------|
D|-------------------------------------------|
A|--3-3-3-3-3-7-7-7-7-7-8-8-8-8-8-8-8-8-8-8--|
E|-------------------------------------------|

Verse:

G|-------------------------------------------|
D|-------------------------------------------|
A|--3---------0------------------------------|
E|----------------------1---------3----------|

Bridge:

G|-------------------------------------------|
D|-------------------------------------------|
A|-------------------------------------------|
E|--5-5-5-5-5-1-1-1-1-1-3-3-3-3-3-3-3-3------|


The song goes like that:

-> Introverse
-> Chorus
-> Verse 1/2
-> Chorus
-> Bridge
-> Chorus
-> Bridge

tabbed by frixxx
Comments