Reach 454 - In Your Arms Chords & Tabs

 

In Your Arms Chords & Tabs

Reach 454 Chords & Tabs

Version: 1 Type: Tab 0 ratings
1 star 2 stars 3 stars 4 stars 5 stars
comments

In Your Arms Tab

   
-------------------------------------------------------------------------------
			    In Your Arms - Reach 454
-------------------------------------------------------------------------------
Tabbed by: IbanezFreak555
Email: theasiankid555@end-war.com

Tuning: C,G,C,F,A,D

Intro
-|----------------------------------|
-|----------------------------------|
-|----------------------------------|
-|---5-----9-----9\--5-----9-----9\-|
-|-3-----7---------3-----7----------|
-|----------------------------------|

-|----------------------------------|
-|----------------------------------|
-|----------------------------------|
-|---5-----9-----9\--5-----9-----9\-|
-|-3-----7---------3-----7----------|
-|----------------------------------|
Verse 1
-|----------------------------------|
-|----------------------------------|
-|----------------------------------|
-|---5-----9-----9\--5-----9-----9\-|
-|-3-----7---------3-----7----------|
-|----------------------------------|

-|----------------------------------|
-|----------------------------------|
-|----------------------------------|
-|---5-----9-----9\--5-----9-----9\-|
-|-3-----7---------3-----7----------|
-|----------------------------------|

-|---------------------------|
-|---------------------------|
-|---------------------------|
-|---5-----9-----9\--5-----9-|
-|-3-----7---------3-----7---|
-|---------------------------|

-|------------------|
-|------------------|
-|------------------|
-|-2222222222222222-|
-|-2222222222222222-|
-|-2222222222222222-|
P.M............

Chorus
-|----------------------------------------|
-|----------------------------------------|
-|-5--555--55-55-555-5--555--55-55-55-555-|
-|-5--555--55-55-555-5--555--55-55-55-555-|
-|-3--333--33-33-333-7--777--77-77-77-777-|
-|----------------------------------------|

-|----------------------------------------|
-|----------------------------------------|
-|-5--555--55-55-555----------------------|
-|-5--555--55-55-555-2--222--22-22-22-222-|
-|-3--333--33-33-333-2--222--22-22-22-222-|
-|-------------------2--222--22-22-22-222-|

-|----------------------------------------|
-|----------------------------------------|
-|-5--555--55-55-555-5--555--55-55-55-555-|
-|-5--555--55-55-555-5--555--55-55-55-555-|
-|-3--333--33-33-333-7--777--77-77-77-777-|
-|----------------------------------------|

-|----------------------------------------|
-|----------------------------------------|
-|-5--555--55-55-555----------------------|
-|-5--555--55-55-555-2--222--22-22-22-222-|
-|-3--333--33-33-333-2--222--22-22-22-222-|
-|-------------------2--222--22-22-22-222-|

Solo
-|---------------------------------------|
-|---------------------------------------|
-|----------7--7-7h9"---9--9-9p7--7------|
-|-9"--9--9-------------------------7h9"-|
-|---------------------------------------|
-|---------------------------------------|

-|------------------------------------------------|
-|-------------------------10---10--10--10-10--9--|
-|------7--7-7h9"---9--9-9--------------------7h9-|
-|-9--9-------------------------------------------|
-|------------------------------------------------|
-|------------------------------------------------|

Verse 2
-|--------------------------------------------|
-|----------------------------------10--10h12-|
-|------9--7h9----------------9--9-9----------|
-|---9--------------5------9------------------|
-|-7--------------3------7--------------------|
-|--------------------------------------------|

-|-------------------------|
-|-------------------------|
-|----------9--7h9---------|
-|---5---9---------------5-|
-|-3---7---------------3---|
-|-------------------------|

-|------------------|
-|------------------|
-|------------------|
-|-2222222222222222-|
-|-2222222222222222-|
-|-2222222222222222-|
P.M............


Chorus
-|----------------------------------------|
-|----------------------------------------|
-|-5--555--55-55-555-5--555--55-55-55-555-|
-|-5--555--55-55-555-5--555--55-55-55-555-|
-|-3--333--33-33-333-7--777--77-77-77-777-|
-|----------------------------------------|
[ Tab from: http://www.guitartabs.cc/tabs/r/reach_454/in_your_arms_tab.html ]
-|----------------------------------------|
-|----------------------------------------|
-|-5--555--55-55-555----------------------|
-|-5--555--55-55-555-2--222--22-22-22-222-|
-|-3--333--33-33-333-2--222--22-22-22-222-|
-|-------------------2--222--22-22-22-222-|

-|----------------------------------------|
-|----------------------------------------|
-|-5--555--55-55-555-5--555--55-55-55-555-|
-|-5--555--55-55-555-5--555--55-55-55-555-|
-|-3--333--33-33-333-7--777--77-77-77-777-|
-|----------------------------------------|

-|----------------------------------------|
-|----------------------------------------|
-|-5--555--55-55-555----------------------|
-|-5--555--55-55-555-2--222--22-22-22-222-|
-|-3--333--33-33-333-2--222--22-22-22-222-|
-|-------------------2--222--22-22-22-222-|

Interlude
-|---------------------------------------|
-|---------------------------------------|
-|---------------------------------------|
-|-7-777-77-77-777-5-5555-10-1010-101010-|
-|-7-777-77-77-777-5-5555-10-1010-101010-|
-|-7-777-77-77-777-5-5555-10-1010-101010-|

-|---------------------------------------|
-|---------------------------------------|
-|---------------------------------------|
-|-7-777-77-77-777-5-5555-10-1010-101010-|
-|-7-777-77-77-777-5-5555-10-1010-101010-|
-|-7-777-77-77-777-5-5555-10-1010-101010-|

Solo
-|---------------------------------------|
-|---------------------------------------|
-|----------7--7-7h9"---9--9-9p7--7------|
-|-9"--9--9-------------------------7h9"-|
-|---------------------------------------|
-|---------------------------------------|

-|------------------------------------------------|
-|-------------------------10---10--10--10-10--9--|
-|------7--7-7h9"---9--9-9--------------------7h9-|
-|-9--9-------------------------------------------|
-|------------------------------------------------|
-|------------------------------------------------|

Outro
-|----------------------------------------|
-|----------------------------------------|
-|-5--555--55-55-555-5--555--55-55-55-555-|
-|-5--555--55-55-555-5--555--55-55-55-555-|
-|-3--333--33-33-333-7--777--77-77-77-777-|
-|----------------------------------------|

-|----------------------------------------|
-|----------------------------------------|
-|-5--555--55-55-555----------------------|
-|-5--555--55-55-555-2--222--22-22-22-222-|
-|-3--333--33-33-333-2--222--22-22-22-222-|
-|-------------------2--222--22-22-22-222-|

-|----------------------------------------|
-|----------------------------------------|
-|-5--555--55-55-555-5--555--55-55-55-555-|
-|-5--555--55-55-555-5--555--55-55-55-555-|
-|-3--333--33-33-333-7--777--77-77-77-777-|
-|----------------------------------------|

-|----------------------------------------|
-|----------------------------------------|
-|-5--555--55-55-555----------------------|
-|-5--555--55-55-555-2--222--22-22-22-222-|
-|-3--333--33-33-333-2--222--22-22-22-222-|
-|-------------------2--222--22-22-22-222-|


-|----------------------------------------|
-|----------------------------------------|
-|-5--555--55-55-555-5--555--55-55-55-555-|
-|-5--555--55-55-555-5--555--55-55-55-555-|
-|-3--333--33-33-333-7--777--77-77-77-777-|
-|----------------------------------------|

-|----------------------------------------|
-|----------------------------------------|
-|-5--555--55-55-555----------------------|
-|-5--555--55-55-555-2--222--22-22-22-222-|
-|-3--333--33-33-333-2--222--22-22-22-222-|
-|-------------------2--222--22-22-22-222-|

-|----------------------------------------|
-|----------------------------------------|
-|-5--555--55-55-555-5--555--55-55-55-555-|
-|-5--555--55-55-555-5--555--55-55-55-555-|
-|-3--333--33-33-333-7--777--77-77-77-777-|
-|----------------------------------------|

-|----------------------------------------|
-|----------------------------------------|
-|-5--555--55-55-555----------------------|
-|-5--555--55-55-555-2--222--22-22-22-222-|
-|-3--333--33-33-333-2--222--22-22-22-222-|
-|-------------------2--222--22-22-22-222-|


End On
-|----|
-|----|
-|----|
-|-6"-|
-|-6"-|
-|-6"-|

| /  slide up
| \  slide down
| h  hammer-on
| p  pull-off
| ~  vibrato
| +  harmonic
| x  Mute note
| "  let ring
===============================================================================
Comments