Rb32 - Teen Rules Suck Chords & Tabs

 

Teen Rules Suck Chords & Tabs

Rb32 Chords & Tabs

Version: 1 Type: Tab 0 ratings
1 star 2 stars 3 stars 4 stars 5 stars
comments

Teen Rules Suck Tab

rb32 

the jokes on you

teen rules suck




                     intro

[]--------------------------------------------------------------
[]--------------------------------------------------------------
[]-------------------------------------2-2-2--------------------
[]-------------------------------3-3-3--------------------------
[]--2-3-----2-3-------2-3---------------------------------------
[]------2-0------0------------------------------3-3-2-2---------


                           verse 1,2,& 3

[]------------------------------------------------------------------
[]------------------------------------------------------------------
[]------------------------------------------------------------------
[]--9-9-9-9-9-9-9-9----7-7-7-7-7-7-7-7-------------------------------
[]--7-7-7-7-7-7-7-7----5-5-5-5-5-5-5-5---10-10-10-10-10-10-10-10-----
[]---------------------------------------8--8--8--8--8--8--8--8------
p.m.-------------------------------------------------------------


           pre chorus


[]-----------------------------------
[]-----------------------------------
[]-----------------------------------
[]-----------------------------------
[]--8--8--7--7--9--9--7--7-----------
[]--7--7--8--8--7--7--9--9-----------



                                 chorus
[ Tab from: http://www.guitartabs.cc/tabs/r/rb32/teen_rules_suck_tab.html ]
[]---------------------------------------------------------------
[]---------------------------------------------------------------
[]---------------------------------------------------------------
[]-4-4-4-4-4-4-4-------------------------------4-4-4-4-4---------
[]-2-2-2-2-2-2-2--------3-3-3-3-3-3-3-3--------2-2-2-2-2---------
[]----------------------1-1-1-1-1-1-1-1--------------------------
                                          p.m.-------------



                                 solo

[]------------------------------------------------------------------
[]------------------------------------------------------------------
[]------------------------------------------------------------------
[]------------------------------------------------------------------
[]-5-3-5-3-5-3-5-3-5-3-5-3-5-3-5-3-5-3-5-3-5-3----------------------
[]----------------------------------------------3-4-3-4-3-4-3-4-3-4-


                             ending

[]-----------------------------------------------------------------
[]-----------------------------------------------------------------
[]-----------------------------------------------------------------
[]--------5-----5-----5-----5------5---5------5-5-5----------------
[]--------3-----3-----3-----3------3---3------3-3-3----------------
[]--------0-----0-----0-----0--------------------------------------
     p.m.---      p.m.--       p.m.------
Comments