Rb32 - School Sucks Chords & Tabs

 

School Sucks Chords & Tabs

Rb32 Chords & Tabs

Version: 2 Type: Tab 0 ratings
1 star 2 stars 3 stars 4 stars 5 stars
comments

School Sucks Tab

TITLE- school sucks
ALBUM- the jokes on you
Artist- rb32

Tabbed by- kyle orlando

                          intro

[]--------------------------------------------------------|
[]--------------------------------------------------------|
[]--------------------------------------------------------|
[]--------------------------------------------------------|
[]-5-7-5-7-7-7-----------5-7-5-7-7-7-5--------------------|
[]-3-5-3-5-5-5-----------3-5-3-5-5-5-3--------------------|

                     verse 1,2,& 3


[]---------------------------------------------------------------------------|
[]---------------------------------------------------------------------------|
[]---------------------------------------------------------------------------|
[]-12-12-12-12-12-12-12-12--10-10-10-10-10-10-10-10--------------------------|
[]-10-10-10-10-10-10-10-10--8--8--8--8--8--8--8--8---10-10-10-10-10-10-10-10-|
[]---------------------------------------------------8--8--8--8--8--8--8--8--|
p.m--------------------------------------------------------------------------|
[ Tab from: http://www.guitartabs.cc/tabs/r/rb32/school_sucks_tab_ver_2.html ]
                       pre chorus
[]--------------------------------------|
[]--------------------------------------|
[]--------------------------------------|
[]--------------------------------------|
[]--------------------------------------|
[]---7-7-7-7--8-9--7-7-7----------------|

                     chorus

[]-------------------------------------------------------------------|
[]-------------------------------------------------------------------|
[]-------------------------------------------------------------------|
[]-9-9-9-9-9-9-9-9---------------------------------------------------|
[]-7-7-7-7-7-7-7-7--8-8-8-8-8-8-8-8--6-6-6-6-6-6-6-6-----------------|
[]------------------6-6-6-6-6-6-6-6--4-4-4-4-4-4-4-4-----------------|

                         ending

[]----------------------------------------------------------------|
[]----------------------------------------------------------------|
[]----------------------------------------------------------------|
[]----------------------------------------------------------------|
[]--------------------8-8-8-8-8-8-8-8---9-9-6-6-9-9---------------|
[]-7-7-7-7-7-7-7-7----------------------7-7-4-4-7-7---------------|
Comments