Rb32 - Fallen In A Mosh Pit Chords & Tabs

 

Fallen In A Mosh Pit Chords & Tabs

Rb32 Chords & Tabs

Version: 1 Type: Tab 0 ratings
1 star 2 stars 3 stars 4 stars 5 stars
comments

Fallen In A Mosh Pit Tab

rb32 
fallen in a mosh pit 
"the jokes on you"

played by kyle orlando



               intro

[]---------------------------------------------------------------
[]---------------------------------------------------------------
[]---------------------------------------------------------------
[]------5----5-------5----------5---5------5-----5--5--------5---
[]------5----5-------5----------5---5------5-----5--5--------5---
[]------3----3-------3----------3---3------3-----3--3--------3---


             verse 1

[]------------------------------------------------------------
[]------------------------------------------------------------
[]----------------------3-------------------------------------
[]-----5--------4-------3--------3----------------------------
[]-----5--------4-------1--------3----------------------------
[]-----3--------2----------------1----------------------------  play each 8x


                  chorus

[ Tab from: http://www.guitartabs.cc/tabs/r/rb32/fallen_in_a_mosh_pit_tab.html ]
[]------------------------------------------------------------------------
[]------------------------------------------------------------------------
[]------------------------------------------------------------------------
[]---5-5-5-5-5-5-5-5--6-6---6-6---7-7-7-7-7-7-7-7-------------------------
[]---5-5-5-5-5-5-5-5--6-6---6-6---7-7-7-7-7-7-7-7-------------------------
[]---3-3-3-3-3-3-3-3--4-4---4-4---5-5-5-5-5-5-5-5-------------------------


                          verse 2 and ending


[]---------------------------------------------------------------------
[]---------------------------------------------------------------------
[]---4-4-4---5-5-5---6-6-6---7-7-7---8-8-8-8---------------------------
[]---3-3-3---4-4-4---5-5-5---6-6-6---7-7-7-7---------------------------
[]---------------------------------------------------------------------
[]---------------------------------------------------------------------
p.m.-------------------------------  

Comments