Razorlight - Stumble And Fall Chords & Tabs

 

Stumble And Fall Chords & Tabs

Razorlight Chords & Tabs

Version: 1 Type: Tab 0 ratings
1 star 2 stars 3 stars 4 stars 5 stars
comments

Stumble And Fall Tab

   
Tuning: Standard

Pick F - Em - F  then play

INTRO:
  C      F      C          F     Am   Em    C
--8--8---8--8---8--8-------8--8--5-5--7-7---8--8--|
--8--8--10-10---8--8------10-10--5-5--8-8---8--8--|
--9--9--10-10---9--9------10-10--5-5--9-9---9--9--|
-10-10--10-10--10-10------10-10--7-7--9-9--10-10--|
-10-10---8--8--10-10-------8--8--7-7--7-7--10-10--|
--8--8---8--8---8--8-------8--8--5-5--7-7---8--8--|

  F      C          F      C          F     Am       Em    F      C
--8--8---8--8-------8--8---8--8-------8--8--5-5------7-7---8--8---8--8------|
-10-10---8--8------10-10---8--8------10-10--5-5------8-8--10-10---8--8------|
-10-10---9--9------10-10---9--9------10-10--5-5------9-9--10-10---9--9------|
-10-10--10-10------10-10--10-10------10-10--7-7------9-9--10-10--10-10------|
--8--8--10-10-------8--8--10-10-------8--8--7-7------7-7---8--8--10-10------|
--8--8---8--8-------8--8---8--8-------8--8--5-5------7-7---8--8---8--8------|

VERSE: repeat 2nd part of INTRO

I heard that it was a really big deal
And then i found it was just nothing at all.
You always say it's such a big deal
But we both know that that's nothing at all.

GUITAR 2 (Through VERSE & CHORUS):

---------------------------------------------------------7-7-7--------------|
-8-----8-----8-----8-----10-10-10------8-----8-----8-----------8-----8------|
-----------------------------------x2---------------------------------------|
--10-10-10-10-10-10-10-10---------------10-10-10-10-10-10-------10-10-10-10-|
----------------------------------------------------------------------------|
----------------------------------------------------------------------------|

                    (Ending varies...)
--------------|-------------|-----------------------------------------------|
-8-----8------|-10-10-10-10-|-10-8------------------------------------------|
--------------|-------------|------10-9-------------------------------------|
--10-10-10-10-|-------------|-----------------------------------------------|
--------------|-------------|-----------------------------------------------|
--------------|-------------|-----------------------------------------------|

(F F C C)

CHORUS:
    C            F         C          F
And I...... get over the breaks......
    Am   Em  F           C         F
And I...... stumble and fall......
    C            F         C          F
And I...... get over the breaks......
 Am         Em   F         C
And sometimes stumble and fall.
[ Tab from: http://www.guitartabs.cc/tabs/r/razorlight/stumble_and_fall_tab.html ]
VERSE 2:
You just won't admit that it's all in your head
So I have to try so hard to make you understand
But all you can say is "It's just part of the deal".

VERSE 3:
And I never asked you to understand how
I keep myself to myself in the crush of the crowd
But all you can say is "Who cares?
It's part of the deal."

CHORUS:
    C            F         C          F
And I...... get over the breaks......
    Am   Em  F           C         F
And I...... stumble and fall......
    C            F         C          F
And I...... get over the breaks......
 Am         Em   F         C
And sometimes stumble and fall.

BREAK:

Em             F            Em         F           Em
-------7-------8-7----------10--8--7---12--10--8---8/10-10-10-8-------------|
-----8---8---8-----10-8---8----------8-------------8/10-12-10-8-------------|
---9------------------------------------------------------------------------|
-9--------------------------------------------------------------------------|
----------------------------------------------------------------------------|
----------------------------------------------------------------------------|

-10/12-12-12-10----12----12-12-12-12-------17~----15~----19p17---------------|
-10/12-13-12-10----12h13-15-13-12-12----15-----15-------------20p17----------|
-------------------------------------------------------------------19-19-19~-|
-----------------------------------------------------------------------------|
-----------------------------------------------------------------------------|
-----------------------------------------------------------------------------|


Am      Em  F  C


CHORUS x 2
    C            F         C          F
And I...... get over the breaks......
    Am   Em  F           C         F
And I...... stumble and fall......
    C            F         C          F
And I...... get over the breaks......
 Am         Em   F         C
And sometimes stumble and fall.

OUTRO: Yes I fall  -   Yes I fall     -   I stumble and fall.
-----------------7-----7--------------12-------12---------------------------|
-------------------8-----8---------------10-------10------------------------|
----------------------9-----9----------------9-------9\---------------------|
----------------------------------------------------------------------------|
----------------------------------------------------------------------------|
----------------------------------------------------------------------------|

BAM! Fin!!
any probs or just want a chat (as u do)LOL, e-mail me in_your_world@hotmail.co.uk
Comments