Razorlight - Stumble And Fall Chords & Tabs

 

Stumble And Fall Chords & Tabs

Razorlight Chords & Tabs

Version: 1 Type: Bass Tab

Stumble And Fall Bass Tab

|----------------------------------------------------------|
|----5------5------5---333-5-----5------5------5---333-----|
|-33---3-33---3-33---3--------33---3-33---3-33---3---------|
|----------------------------------------------------------|
[ Tab from: http://www.guitartabs.cc/tabs/r/razorlight/stumble_and_fall_btab.html ]
|-------------------------------------------------|
|-------------------------5------5------5---333-5-|
|----------7777-8-7-5--33---3-33---3-33---3-------|
|-55555557----------------------------------------|

Bridge

|------------------------|
|------------------------|
|-7-8---7-8---7-8---7-8--|
|------------------------|

End

|------------|
|------------|
|-7---8------|
|---------8--|

Enjoy