Razorlight - Somewhere Else Chords & Tabs

 

Somewhere Else Chords & Tabs

Razorlight Chords & Tabs

Version: 1 Type: Tab 0 ratings
1 star 2 stars 3 stars 4 stars 5 stars
comments

Somewhere Else Tab

   
-----------------------------------------------------------------
Somewhere Else - Razorlight
-----------------------------------------------------------------
Tabbed by: "La Qotsa" (Alex M)
Email: alex_mihail@hotmail.co.uk (Id love the rest of the song sent to me)

Tuning: Standard (EADGBe)
[ Tab from: http://www.guitartabs.cc/tabs/r/razorlight/somewhere_else_tab.html ]
e|--(7)-(7)---------------------(5)(5)(5)(5)-----(2)(2)(2)(2)--------------|
B|--(7)-(7)--------(9)(9)(9)(9)-(5)(5)(6)(5)-----(2)(2)(2)(2)--------------|
G|--(8)-(8)---------9--9--9--9--(6)(6)(6)(6)-----(3)(3)(3)(3)--------------|
D|---9---9--9--9----9--9--9--9---7--7--7--7-------4--4--4--4---------------|
A|---9---9--9--9----7--7--7--7---7--7--7--7-------4--4--4--4---------------|
E|---7---7--7--7-----------------5--5--5--5-------2--2--2--2---------------|

e|--(9)-(9)(9)(9)---------------(5)(5)(5)----------------------------------|
B|--(9)-(9)(9)(9)--(9)(9)(9)(9)-(5)(5)(5)-----(7)(7)(7)(7)-----------------|
G|--(8)-(8)(8)(8)---9--9--9--9--(6)(6)(6)------7--7--7--7------------------|
D|---9---9--9--9----9--9--9--9---7--7--7--7----7--7--7--7------------------|
A|---9---9--9--9----7--7--7--7---7--7--7--7----5--5--5--5------------------|
E|---7---7--7--7-----------------5--5--5--5--------------------------------|

This isn't the real strumming pattern. Work it out for yourself

( ) = Optional, but sound better if used

| / slide up
| \ slide down
| h hammer-on
| p pull-off
| ~ vibrato
| + harmonic
| x Mute note
Comments