Razorlight - Rock N Roll Lies Acoustic Chords & Tabs

 

Rock N Roll Lies Acoustic Chords & Tabs

Razorlight Chords & Tabs

Version: 2 Type: Tab 0 ratings
1 star 2 stars 3 stars 4 stars 5 stars
comments

Rock N Roll Lies Acoustic Tab

Band:  Razorlight
Title: Rock 'n' Roll Lies (Acoustic)
Album: Up All Night
Tabed: Dave Mullen


This is a more accurate version of Rock & Roll Lies (Acoustic) by Johnny Borrell.

listen to the track for Strumming Pattern

Intro & Main Riff
e|---------------------------------------------------------------|
B|---------------------------------------------------------------|
G|---------------------------------------------------------------|
D|--9--9--9---9--9--9---9--9---7-7-7--7-7-7--7-7-----------------|
A|-11-11-11--11-11-11--11-11---9-9-9--9-9-9--9-9-----------------|
E|---------------------------------------------------------------|


e|---------------------------------------------------------------|
B|---------------------------------------------------------------|
G|---------------------------------------------------------------|
D|--9--9--9---9--9--9---9--9---7-7-7--7-7-7--7-7-----------------|
A|-11-11-11--11-11-11--11-11---9-9-9--9-9-9--9-9-----------------|
E|---------------------------------------------------------------|


e|---------------------------------------------------------|
B|---------------------------------------------------------|
G|---------------------------------------------------------|
D|-11-11-11--11-11-11--11-11-11--11-11-11--11-11--11-11----|
A|--0--0--0---0--0--0---0--0--0---0--0--0---0--0---0--0----|
E|---------------------------------------------------------|

VERSE...

  There's too much silence in her night
e|---------------------------------------------------------------|
B|---------------------------------------------------------------|
G|---------------------------------------------------------------|
D|--9--9--9---9--9--9---9--9---7-7-7--7-7-7--7-7-----------------|
A|-11-11-11--11-11-11--11-11---9-9-9--9-9-9--9-9-----------------|
E|---------------------------------------------------------------|


  She calls herself an angel, and she comes to town
e|---------------------------------------------------------------|
B|---------------------------------------------------------------|
G|---------------------------------------------------------------|
D|--9--9--9---9--9--9---9--9---7-7-7--7-7-7--7-7-----------------|
A|-11-11-11--11-11-11--11-11---9-9-9--9-9-9--9-9-----------------|
E|---------------------------------------------------------------|


    Thats L-O-N-D-O-N             Just so she can fall
e|---------------------------------------------------------|
B|---------------------------------------------------------|
G|---------------------------------------------------------|
D|-11-11-11--11-11-11--11-11-11--11-11-11--11-11--11-11----|
A|--0--0--0---0--0--0---0--0--0---0--0--0---0--0---0--0----|
E|---------------------------------------------------------|


  There's something about the way she walks, you know
e|---------------------------------------------------------------|
B|---------------------------------------------------------------|
G|---------------------------------------------------------------|
D|--9--9--9---9--9--9---9--9---7-7-7--7-7-7--7-7-----------------|
A|-11-11-11--11-11-11--11-11---9-9-9--9-9-9--9-9-----------------|
E|---------------------------------------------------------------|

[ Tab from: http://www.guitartabs.cc/tabs/r/razorlight/rock_n_roll_lies_acoustic_tab_ver_2.html ]
  It suits the city streets so well and yet
e|---------------------------------------------------------------|
B|---------------------------------------------------------------|
G|---------------------------------------------------------------|
D|--9--9--9---9--9--9---9--9---7-7-7--7-7-7--7-7-----------------|
A|-11-11-11--11-11-11--11-11---9-9-9--9-9-9--9-9-----------------|
E|---------------------------------------------------------------|


  No one's heard her band yet, but they play real well
e|---------------------------------------------------------|
B|---------------------------------------------------------|
G|---------------------------------------------------------|
D|-11-11-11--11-11-11--11-11-11--11-11-11--11-11--11-11----|
A|--0--0--0---0--0--0---0--0--0---0--0--0---0--0---0--0----|
E|---------------------------------------------------------|


CHORUS...

  Here it comes now   .....    there's nothing to say
e|---------------------------------------------------------------|
B|---------------------------------------------------------------|
G|---------------------------------------------------------------|
D|--9--9--9---9--9--9---9--9---7-7-7--7-7-7--7-7-----------------|
A|-11-11-11--11-11-11--11-11---9-9-9--9-9-9--9-9-----------------|
E|---------------------------------------------------------------|


  There goes again   .....     but no one cares anyway
e|---------------------------------------------------------------|
B|---------------------------------------------------------------|
G|---------------------------------------------------------------|
D|--9--9--9---9--9--9---9--9---7-7-7--7-7-7--7-7-----------------|
A|-11-11-11--11-11-11--11-11---9-9-9--9-9-9--9-9-----------------|
E|---------------------------------------------------------------|


   He sees your eyes .....     you're rock'n'roll eyes
e|---------------------------------------------------------|
B|---------------------------------------------------------|
G|---------------------------------------------------------|
D|-11-11-11--11-11-11--11-11-11--11-11-11--11-11--11-11----|
A|--0--0--0---0--0--0---0--0--0---0--0--0---0--0---0--0----|
E|---------------------------------------------------------|


BRIDGE...

e|------------------------------------------------------------|
B|---9--9--9--9/-5-5------------------------------------------|
G|--11-11-11-11/-7-7------------------------------------------|
D|-------------------11-11-11-11-11-11-9-9--------------------|
A|------------------------------------------------------------|
E|------------------------------------------------------------|

There is a second VERSE which uses the same RIFF as the first VERSE

Followed by the second CHORUS, which is exactly the same as the first CHORUS

Then there is a second BRIDGE which is the same but REPEATED 4 TIMES


LYRICS TO SECOND VERSE

You've seen the man, he calls out for a drink, and you're all
You're all tied up in your backstage lines
And you, you just can't move a muscle

Six in the morning and you rise and you fall, you got to
You got to grab what you can
Here comes your man, baby, he's a winner, yeah
He's a gunslinger


Any Problems? Email me
charli_baltimore_inc@yahoo.co.uk
Comments