Razorlight - Rock N Roll Lies Acoustic Chords & Tabs

 

Rock N Roll Lies Acoustic Chords & Tabs

Razorlight Chords & Tabs

Version: 1 Type: Tab 0 ratings
1 star 2 stars 3 stars 4 stars 5 stars
comments

Rock N Roll Lies Acoustic Tab

   
Band:  Razorlight
Title: Rock 'n' Roll Lies (Acoustic)
Album: Up All Night
Tabed: Max Power 


INTRO/Main Riff: Palm Muted

e|------------------------------------------------------------------------|
B|------------------------------------------------------------------------|
G|------------------------------------------------------------------------|
D|--9--9--9--9--9--5-5-5-5-5--9--9--9--9--9--5-5-5-5-5--11-11-11-11-11-11-|
A|-11-11-11-11-11--7-7-7-7-7-11-11-11-11-11--7-7-7-7-7---0--0--0--0--0--0-|
E|------------------------------------------------------------------------|
                              (REPEAT)  

Break:  Palm Muted      

e|--------------------------------------------------------------|
B|---9--9--9--9/-5-5--------------------------------------------|
G|--11-11-11-11/-7-7--------------------------------------------|
D|-------------------11-11-11-11-11-11-9-9----------------------|
A|--------------------------------------------------------------|
E|--------------------------------------------------------------|

       
Song Break Down:

VERSE 1:  (Play intro/main riff)      

There's too much silence in her night
She calls herself an angel, and she comes to town
I said L-O-N-D-O-N
Just so she can fall 
There's something about the way she walks, you know
It suits the city streets so well and yet
No one's heard her band yet, but they play real well 


CHORUS:  (Play intro/main riff) 
[ Tab from: http://www.guitartabs.cc/tabs/r/razorlight/rock_n_roll_lies_acoustic_tab.html ]
Oh yeah, here it comes baby, and there's nothing to say
Here it comes now, you don't care anyway
He sees your eyes, you're just the rock'n'roll eyes
Oh but it's just lies, babe, it's just the rock'n'roll lies 


(Then play the Break x1)


VERSE 2:  (Play intro/main riff) 

You've seen the man, he calls out for a drink, and you're all
You're all tied up in your backstage lines
And you, you just can't move a muscle 

Six in the morning and you rise and you fall, you got to
You got to grab what you can
Here comes your man, baby, he's a winner, yeah
He's a gunslinger 

CHORUS:  (Play intro/main riff) 

Oh yeah, here it comes baby, and there's nothing to say
Here it comes now, you don't care anyway
He sees your eyes, you're just the rock'n'roll eyes
Oh but it's just lies, babe, it's just the rock'n'roll lies 


(Then play the Break x4)


VERSE 3:  (Play intro/main riff) 

Oh baby, when you say my name I get, such a thrill inside
She says there's something in the way that I look at her
                                     A
Yeah, I guess it's right here in my eyes
I can't lie 

CHORUS:  (Play intro/main riff) 

And here it comes now, there's nothing to say
Here it comes now, you don't care anyway
You see those eyes, they're just a rock'n'roll eyes
Oh just like mine, babe, they're just a rock'n'roll eyes
Oh it's just the lies, babe, it's just the rock'n'roll lies
Oh it's just the lies, man, it's just the rock'n'roll lies
Oh...
		

This is a tab of an acoustic version of Rock 'n' Roll Lies which was played by
Johnny live on a special edition dvd. When playing the song don't strum all the
strings in the main riff just palm mute and strum the E,A,D strings that might
be obvious but anyway listen to the song for timing and what not, it wont be
the same as the album version but you'll get the idea.
Comments