Razorlight - Rip It Up Chords & Tabs

 

Rip It Up Chords & Tabs

Razorlight Chords & Tabs

Version: 1 Type: Bass Tab 0 ratings
1 star 2 stars 3 stars 4 stars 5 stars
comments

Rip It Up Bass Tab

Rip It Up-Razorlight
Tabbed By Tim Addison

The song is in standard tuning (EADG)

If you have any comments,suggestions or queries please e-mail me at tjarocks@hotmail.com
Note:To get the right sound use a pick instead of fingers.

Verse 1
----------| Repeat x6
----------|
-5--------|
----------|
Let ring

Chorus 1
----------------------------------------------------4-------------|
--------------------5-5-5-5-5-5-5---------------------7-----------|
-12\7-7-7-7-7-7-7-7---------------5-7-7-7-7-7-7-7-7-----7--5------|
-------------------------------------------------------------7-5--|

Verse 2
-----------------------------| Repeat x6
-----------------------------|
-5-5-5-5----------7-7-7-7/9--|
-----------------------------|

Chorus 2
-------------------------------------------------4-------------|
-----------------5-5-5-5-5-5-5---------------------7-----------|
-7-7-7-7-7-7-7-7---------------5-7-7-7-7-7-7-7-7-----7--5------|
----------------------------------------------------------7-5--|

Verse 3
-----------------------------| Repeat x2
-----------------------------|
-5-5-5-5----------7-7-7-7/9--|
-----------------------------|

---------------------------------------------------4---------------|
-----------------------------------------------------7-------------|
-5-5-5-5-5-5-5-5-5-7-7-7-7/9-9-9--5-5-5-5-5-5-5-5------7--5------7-|
------------------------------------------------------------7-5----|
[ Tab from: http://www.guitartabs.cc/tabs/r/razorlight/rip_it_up_btab.html ]
----------------4-4-4-------4-------------------------------------|
----------------------7-7-7---7-----------------------------------|
-7-7-7-7-7-7-7-------------------5-5-5-5-5-5-5-5-5-7-7-7-7/9-9-9--|
------------------------------------------------------------------|

-------------------------------| Play this exact bar four times
-------------------------------|
-5-5-5-5----------7-7-7-7/9-9--|
-------------------------------|

Chorus 3
-------------------------------------------------4-4-4-4---------|
-----------------5-5-5-5-5-5-5---------------------------7-7-7-7-|
-7-7-7-7-7-7-7-7---------------5-7-7-7-7-7-7-7-7-----------------|
-----------------------------------------------------------------|

Bridge
-----------------------------| Repeat x4
-----------------------------|
-5-5-5-5---------7-7-7-7/9---|
-----------------------------|
       Let Ring

----------------------------------|Repeat x4
----------------------------------|
-5-5-5-5-5-5-5-5-5-7-7-7-7/9-9-9--|
----------------------------------|

Verse 4
-----------------------------| Repeat x4
-----------------------------|
-5-5-5-5----------7-7-7-7/9--|
-----------------------------|

Chorus (final)
-------------------------------------------------4-------------|
-----------------5-5-5-5-5-5-5---------------------7-----------|
-7-7-7-7-7-7-7-7---------------5-7-7-7-7-7-7-7-7-----7--5------|
----------------------------------------------------------7-5--|

Final verse
-----------------------------| Repeat x4
-----------------------------|
-5-5-5-5----------7-7-7-7/9--|
-----------------------------|

Outro
--------------------------|
--------------------------|
-5---5---5---7-7-7-7/9-9--|
--------------------------| Ends
Comments