Razorlight - Leave Me Alone Chords & Tabs

 

Leave Me Alone Chords & Tabs

Razorlight Chords & Tabs

Version: 2 Type: Tab 0 ratings
1 star 2 stars 3 stars 4 stars 5 stars
comments

Leave Me Alone Tab

Artist: Razorlight
Album: Up All Night
Title: Leave Me Alone (Track 1)
Tabbed By: Nick Budicin

This is my take on this great opener on the Razorlight album. I think this is the only 
I know of with the piano intro, so enjoy. :D

Guitar 1: Johnny
Guitar 2: Bjorn


Intro: Clean (Piano for guitar)

E|---------------------------|
B|----6---4----------------6-|
G|---7---5--- X10 Then ----7-|
D|--8---6------------------8-|
A|---------------------------|
E|---------------------------|

Guitar 1 (Verse)
E|---------------------------|
B|--4-/-6--6-x-4-4-----------|
G|--5-/-7--7-x-5-5-----------|
D|--6-/-8--8-x-6-6-----------|     X 15
A|---------------------------|
E|---------------------------|


Guitar 2 (Verse)
E|----------------------------------|
B|-6--6--6--6--6--6--6---6-6-6 X11-|
G|----------------------------------|

Just Before Chorus Guitar 1 Plays..................

E|-----------------------|
B|--4-/-6-6-6-6-6-6-6-6--|
G|--5-/-7-7-7-7-7-7-7-7--|
D|--6-/-8-8-8-8-8-8-8-8--|
A|-----------------------|
E|-----------------------|

Chorus (Guitars 1&2)
E|-----------------------------------|
B|--4--4--4--4----8--8----10--10-----|
G|--5--5--5--5----8--8----10--10-----|
D|--6--6--6--6----8--8----10--10-----|    x 3
A|----------------6--6----8---8------|
E|-----------------------------------|

[ Tab from: http://www.guitartabs.cc/tabs/r/razorlight/leave_me_alone_tab_ver_2.html ]
E|-------6----|
B|--4------4--|
G|--5---------|
D|--6---------|
A|------------|
E|------------|

Verse X3 then...

E|-----------------------|
B|--4-/-6-6-6-6-6-6-6-6--|
G|--5-/-7-7-7-7-7-7-7-7--|
D|--6-/-8-8-8-8-8-8-8-8--|
A|-----------------------|
E|-----------------------|


Verse (Guitar 2 comes in after 8 bars of just Guitar 1)

Chorus

Intro x 2

Bridge to Solo

E|-1---1------1---1------1-------------------------------|
B|-1-----1----1-----1----1-------------------------------|
G|-2-------2--2-------2--2- A few strums of F then solo--|
D|-3----------3----------3-------------------------------|
A|-3----------3----------3-------------------------------|
E|-1----------1----------1-------------------------------|


During the solo

B|--4-/-6--6-x--4-4-------|
G|--5-/-7--7-x--5-5-------|
D|--6-/-8--8-x--6-6-------|     X 8

Sorry, still working on the proper solo, will post it a.s.a.p

End chords of solo:

E|----9---9---9-----7-7-7-7----|
B|----9---9---9-----7-7-7-7----|
G|----10--10--10----8-8-8-8----|
D|----11--11--11----9-9-9-9----|     X 3
A|----11--11--11----9-9-9-9----|
E|----9---9---9-----7-7-7-7----|


E|------------------|
B|--4------4--------|
G|--5------5--------|
D|--6------6--------|
A|------------------|
E|------------------|

Play verse until finish and Fin.

Notes: * Thanks to Matt Gibson for the original tab.
       * Corrections? Insults? You wouldn't be the first. Send them all to  nickbudicin@hotmail.com
Comments