Razorlight - Golden Touch Chords & Tabs

 

Golden Touch Chords & Tabs

Razorlight Chords & Tabs

Version: 6 Type: Tab 0 ratings
1 star 2 stars 3 stars 4 stars 5 stars
comments

Golden Touch Tab

sorry if i'v missed a bit. me cd player broke so i couldnt check it.
Its not great...but, im sure it sounds right :)

E------------------------------------------------------------|
B------------------------------------------------------------|
G------------------------------------------------------------|
D--4-4-4-4-4-4-4-4--6-6-6-6-6-6-6-6--------------------6-6-6-|
A--2-2-2-2-2-2-2-2--4-4-4-4-4-4-4-4---7-7-7-7-6-6-6-6--4-4-4-|
E-------------------------------------5-5-5-5-4-4-4-4--------|
[ Tab from: http://www.guitartabs.cc/tabs/r/razorlight/golden_touch_tab_ver_6.html ]
E--------------------------------------------------------------|
B--------------------------------------------------------------|
G--------------------------------------------------------------|
D--6-6-6-6-8--9-9-9-9-8-8-8-8-6-6-6-6-6-6-6-6------------------|
A--4-4-4-4-6--7-7-7-7-6-6-6-6-4-4-4-4-4-4-4-4--4-4-4-4-6-6-6-6-|
E----------------------------------------------2-2-2-2-4-4-4-4-|

E------------------|
B------------------|
G------------------|
D--6-6-6-6-6-6-6-6-|
A--4-4-4-4-4-4-4-4-|
E------------------|

HIGH PART

E-------12-11-----11-9-----9---9--11--| I
B-----9------12-------10--------------| I
G----9---------11-------11--11--13----|  -REPEATED
D--11---------------------------------| I
A-------------------------------------| I
E-------------------------------------| I
"But then all..."

xxx have fun xxx
     chelz
Comments