Razorlight - Fall Fall Fall Chords & Tabs

 

Fall Fall Fall Chords & Tabs

Razorlight Chords & Tabs

Version: 1 Type: Tab 0 ratings
1 star 2 stars 3 stars 4 stars 5 stars
comments

Fall Fall Fall Tab

artist: razorlight
title: fall fall fall

standard tuning

piano intro

|2---2
|-3--3
|--4-4
|----4
|----2
|-----

verse
|---2------------3---3----|
|----3-----5------3---3---|
|-4---4-----6------4---4--| repeat for rest of verse
|--------7---7-5----5---5-|
|-------------------------|
|-------------------------|

"trees without leaves"
|-0-----------|
|--0-0---5----|
|---0-----6-6-|  x2
|------7---7--|
|2------------|
|-------------|
[ Tab from: http://www.guitartabs.cc/tabs/r/razorlight/fall_fall_fall_tab.html ]
"hours of making love"
|--2-------------------|
|-3-3---5----3-----5---|
|4-----6-6--4-4---6-6--| x3
|-----7----5-----7-----|
|----------------------|
|----------------------|

"lean my way"
|3---5
|3---5
|4---6
|5---7
|5---7
|3---5

"fall fall fall"
             |--2------------------|
             |-3-3---5----3-----5--|
             |4-----6-6--4-4---6-6-|
             |-----7----5-----7----|
             |---------------------|
             |---------------------|

repeat all above till the end

"people making love"
|3---5
|3---5
|4---6
|5---7
|5---7
|3---5

wow truly great song from i band a truly love, any questions e-mail me nottingham_guy2@hotmail.com
Comments