Razorlight - Dont Go Back To Dalston Chords & Tabs

 

Dont Go Back To Dalston Chords & Tabs

Razorlight Chords & Tabs

Version: 1 Type: Tab 0 ratings
1 star 2 stars 3 stars 4 stars 5 stars
comments

Dont Go Back To Dalston Tab

   
Dont go back to Dalston - RAZORLIGHT

great song by very very very great band (more razorlught tabs on the way as soon as i 
round to putting them up)

Tuning:EADGBe

Intro/Verse

    Bminor        D             A             G      A
e|--2-2-2--2-2-2--2-2-2--2-2-2--0-0-0--0-0-0--3-3-3--0-0-0---|
B|--3-3-3--3-3-3--3-3-3--3-3-3--2-2-2--2-2-2--3-3-3--2-2-2---|
G|--4-4-4--4-4-4--2-2------2----2-2-2--2-2-2--0-0-0--2-2-2---|
D|--4-4------4----0-0------0----2-2------2----0---0--2---2---|
A|--2-2------2------------------0-0------0----2---2--0---0---|
E|--------------------------------------------3---3----------|
[ Tab from: http://www.guitartabs.cc/tabs/r/razorlight/dont_go_back_to_dalston_tab.html ]
Bridge (starting at "dont go back to dalston...")
    Bminor        A             G
e|--2-------------0-------------3-------------0--------------|
B|--3-------------2-------------3-------------2--------------|
G|--4-------------2-------------0-------------2--------------|
D|--4-------------2-------------0-------------2--------------|
A|--2-------------0-------------2-------------0--------------|
E|------------------------------3----------------------------|

Chorus (starting at "just come back to me...")
    Bminor        F#minor       G             A
e|--2-2-2--2-2-2--2-2-2--2-2-2--3-3-3--3-3-3--5-5-5--5-5-5-|
B|--3-3-3--3-3-3--2-2-2--2-2-2--3-3-3--3-3-3--5-5-5--5-5-5-|
G|--4-4-4--4-4-4--2-2-2--2-2-2--4-4-4--4-4-4--6-6-6--6-6-6-|
D|--4-4------4----4-4------4----5-5------5-5--7-7------7---|
A|--2-2------2----4-4------4----5-5------5-5--7-7------7---|
E|----------------2-2------2----3-3------3-3--5-5------5---|

quite simple but sounds great...enjoy!
Comments