Razorback - Tunay Na Kulay Chords & Tabs

 

Tunay Na Kulay Chords & Tabs

Razorback Chords & Tabs

Version: 1 Type: Tab 0 ratings
1 star 2 stars 3 stars 4 stars 5 stars
comments

Tunay Na Kulay Tab

                       "TUNAY NA KULAY"BY RAZORBACK
                           transcribed by:freon
                    visit me at: freongang_81@yahoo.com
                          freongang_08@yahoo.com                      


 intro:  as many times
e|--------7---9---7-7h8-----  ---------------------|
B|------9---9---9-------9-7-  ---------------------|
G|--7h8---------------------  ---------------------|
D|--------------------------  -9b---9b---9b---9b---|
A|--------------------------  -9b---9b---9b---9b---|
E|--------------------------  -7b---7b---7b---7b---|

 ah ha ha haaa.... X3
e|------------------------------------------------|
B|------------------------------------------------|
G|--5-5-5-7-7-7-----------------------------------|
D|--5-5-5-7-7-7-8-8-8--9b-9b-9b-9b-9b-9b-9b-9b----|
A|--3-3-3-5-5-5-8-8-8--9b-9b-9b-9b-9b-9b-9b-9b----|
E|--------------6-6-6--7b-7b-7b-7b-7b-7b-7b-7b----|
[ Tab from: http://www.guitartabs.cc/tabs/r/razorback/tunay_na_kulay_tab.html ]
 di mo makita ang tunay n kulay ng iyong mukha
e|---------------------------------------------------------|
B|---------------------------------------------------------|
G|--5-3-4-6-4--5-5-5-5-3-3-3-3-4-4-4-4-6-6-6-6-6-6-6-6-----|
D|--5-3-4-6-4--5-5-5-5-3-3-3-3-4-4-4-4-6-6-6-6-6-6-6-6-----|
A|--3-1-2-4-2--3-3-3-3-1-1-1-1-2-2-2-2-4-4-4-4-4-4-4-4-----|
E|---------------------------------------------------------|
        X3
e|--------7---9--7--------|
B|------9---9------7------|
G|--7h8-------------------|
D|------------------------|
A|------------------------|
E|------------------------|

        X3
e|--------7-----7-8-------|
B|------9---7h8-----------|
G|--7h8-------------------|
D|------------------------|
A|------------------------|
E|------------------------|

       X3
e|--------7---9--7--------|
B|------9---9------7------|
G|--7h8-------------------|
D|------------------------|
A|------------------------|
E|------------------------|

        X3
e|--------7-----7-8-------|
B|------9---7h8-----------|
G|--7h8-------------------|
D|------------------------|
A|------------------------|
E|------------------------|
Comments