Razorback - Paghihintay Chords & Tabs

 

Paghihintay Chords & Tabs

Razorback Chords & Tabs

Version: 1 Type: Tab 0 ratings
1 star 2 stars 3 stars 4 stars 5 stars
comments

Paghihintay Tab

"Paghihintay" by Razorback
transcribed by:freongang
 
intro:

e--------------------------------------------------------|
b--------------------------------------------------------|
g---------2---^--5-0--2---^--5-0-2---^---5-0-2--5--7-----|
d--^------2--0-1------2--0-1-----2--0-1------2--5--7-----|
a-3-2-0--------------------------------------------------|
e-------3------------------------------------------------|

walang paalam...
e------------|
b------------|
g---------2--|
d--^------2--|
a-3-2-0------|
e-------3----|

ang laman ng iyong damdamin isipin...
[ Tab from: http://www.guitartabs.cc/tabs/r/razorback/paghihintay_tab.html ]
e----------------------------------------------|
b----------------------------------------------|
g-2---^--5-0--2---^--5-0-2---^---5-0-2--5--7---|
d-2--0-1------2--0-1-----2--0-1------2--5--7---|
a----------------------------------------------|
e----------------------------------------------|


e--------------------------------|
b------4-----4------4------4-----|
g--4-5---4-5----4-5----4-5-------|
d--------------------------------|
a--------------------------------|
e--------------------------------|

naubos ang oras...
e-----------------------------|
b-----------------------------|
g--7-7--10-10--------5-5------|
d--7-7--10-10--7-7---5-5------|
a--5-5--8--8---7-7---3-3------|
e--------------5-5------------|


visit me at:freongang_81@yahoo.com
            freongang_08@yahoo.com
Comments