Razorback - Munting Paraiso Chords & Tabs

 

Munting Paraiso Chords & Tabs

Razorback Chords & Tabs

Version: 1 Type: Tab 0 ratings
1 star 2 stars 3 stars 4 stars 5 stars
comments

Munting Paraiso Tab

                     MUNTING PARAISO BY: RAZORBACK
                       transcribed by: freongang
                    visit me at freongang_81@yahoo.com
                         freongang_08@yahoo.com


 intro:
e|-----10b- -9----9- --10-13b- -12-14-15b- -14-12-14-13-12-13----12-10-9-11-|
B|--------- ---11--- -9------- ----------- -------------------15------------|
G|--9------ -------- --------- ----------- ---------------------------------|
D|7-------- -------- --------- ----------- ---------------------------------|
A|--------- -------- --------- ----------- ---------------------------------|
E|--------- -------- --------- ----------- ---------------------------------|

e|-----------------------------------------|
B|-2---------------------------------------|
G|-2-----5---4---5---4h5-------------------|
D|-0---0---0---0---0-----3h5-5-5-3-0-------|
A|-----------------------------------------|
E|-----------------------------------------|
[ Tab from: http://www.guitartabs.cc/tabs/r/razorback/munting_paraiso_tab.html ]
 papakita ko sayo...
e|------------------------------------------------------------------|
B|------------------------------------------------------------------|
G|------------------------------------------------------------------|
D|-----------------3h5-5-5-3-0------------------3h5-5-5-------------|
A|------------------------------------------------------3h5-5-5-3-0-|
E|-0-0-0-0-0-0-0-0--------------0-0-0-0-0-0-0-0---------------------|

 nadapaka....
e|---------------------------------|
B|---------------------------------|
G|---------------------------------|
D|--5-----7-----3---3h5-3-0--------|
A|--5-----7-----3------------------|
E|--3-----5-----1------------------|

---------------------------------------------------------------------------
---------------------------------------------------------------------------
 payaso - razorback

  before solo:
e|----------------------------------------|
B|----------------------------------------|
G|----------------------------------------|
D|---------5------------------------------|
A|-5-7-7-5---3-5--2-3-3-3-0---2-3---------|
E|----------------------------------------|

 yung sa payaso ko,,, ngkamali ako ng pgtatype sa before solo,,,, 
 yan check nyo na yan......
                              <<<>>>
Comments